  0
SECTION
  2
HEADER
  9
$ACADVER
  1
AC1018
  9
$ACADMAINTVER
 70
     0
  9
$DWGCODEPAGE
  3
ANSI_1252
  9
$INSBASE
 10
0.0
 20
0.0
 30
0.0
  9
$EXTMIN
 10
1.000000000000000E+20
 20
1.000000000000000E+20
 30
1.000000000000000E+20
  9
$EXTMAX
 10
-1.000000000000000E+20
 20
-1.000000000000000E+20
 30
-1.000000000000000E+20
  9
$LIMMIN
 10
0.0
 20
0.0
  9
$LIMMAX
 10
12.0
 20
9.0
  9
$ORTHOMODE
 70
     0
  9
$REGENMODE
 70
     1
  9
$FILLMODE
 70
     1
  9
$QTEXTMODE
 70
     0
  9
$MIRRTEXT
 70
     1
  9
$LTSCALE
 40
1.0
  9
$ATTMODE
 70
     1
  9
$TEXTSIZE
 40
0.2
  9
$TRACEWID
 40
0.05
  9
$TEXTSTYLE
  7
Standard
  9
$CLAYER
  8
0
  9
$CELTYPE
  6
ByLayer
  9
$CECOLOR
 62
   256
  9
$CELTSCALE
 40
1.0
  9
$DISPSILH
 70
     0
  9
$DIMSCALE
 40
1.0
  9
$DIMASZ
 40
0.18
  9
$DIMEXO
 40
0.0625
  9
$DIMDLI
 40
0.38
  9
$DIMRND
 40
0.0
  9
$DIMDLE
 40
0.0
  9
$DIMEXE
 40
0.18
  9
$DIMTP
 40
0.0
  9
$DIMTM
 40
0.0
  9
$DIMTXT
 40
0.18
  9
$DIMCEN
 40
0.09
  9
$DIMTSZ
 40
0.0
  9
$DIMTOL
 70
     0
  9
$DIMLIM
 70
     0
  9
$DIMTIH
 70
     1
  9
$DIMTOH
 70
     1
  9
$DIMSE1
 70
     0
  9
$DIMSE2
 70
     0
  9
$DIMTAD
 70
     0
  9
$DIMZIN
 70
     0
  9
$DIMBLK
  1

  9
$DIMASO
 70
     1
  9
$DIMSHO
 70
     1
  9
$DIMPOST
  1

  9
$DIMAPOST
  1

  9
$DIMALT
 70
     0
  9
$DIMALTD
 70
     2
  9
$DIMALTF
 40
25.4
  9
$DIMLFAC
 40
1.0
  9
$DIMTOFL
 70
     0
  9
$DIMTVP
 40
0.0
  9
$DIMTIX
 70
     0
  9
$DIMSOXD
 70
     0
  9
$DIMSAH
 70
     0
  9
$DIMBLK1
  1

  9
$DIMBLK2
  1

  9
$DIMSTYLE
  2
STANDARD_ACAD
  9
$DIMCLRD
 70
     0
  9
$DIMCLRE
 70
     0
  9
$DIMCLRT
 70
     0
  9
$DIMTFAC
 40
1.0
  9
$DIMGAP
 40
0.09
  9
$DIMJUST
 70
     0
  9
$DIMSD1
 70
     0
  9
$DIMSD2
 70
     0
  9
$DIMTOLJ
 70
     1
  9
$DIMTZIN
 70
     0
  9
$DIMALTZ
 70
     0
  9
$DIMALTTZ
 70
     0
  9
$DIMUPT
 70
     0
  9
$DIMDEC
 70
     4
  9
$DIMTDEC
 70
     4
  9
$DIMALTU
 70
     2
  9
$DIMALTTD
 70
     2
  9
$DIMTXSTY
  7
Standard
  9
$DIMAUNIT
 70
     0
  9
$DIMADEC
 70
     0
  9
$DIMALTRND
 40
0.0
  9
$DIMAZIN
 70
     0
  9
$DIMDSEP
 70
    46
  9
$DIMATFIT
 70
     3
  9
$DIMFRAC
 70
     0
  9
$DIMLDRBLK
  1

  9
$DIMLUNIT
 70
     2
  9
$DIMLWD
 70
    -2
  9
$DIMLWE
 70
    -2
  9
$DIMTMOVE
 70
     2
  9
$LUNITS
 70
     2
  9
$LUPREC
 70
     3
  9
$SKETCHINC
 40
0.1
  9
$FILLETRAD
 40
0.5
  9
$AUNITS
 70
     0
  9
$AUPREC
 70
     0
  9
$MENU
  1
.
  9
$ELEVATION
 40
0.0
  9
$PELEVATION
 40
0.0
  9
$THICKNESS
 40
0.0
  9
$LIMCHECK
 70
     0
  9
$CHAMFERA
 40
0.0
  9
$CHAMFERB
 40
0.0
  9
$CHAMFERC
 40
0.0
  9
$CHAMFERD
 40
0.0
  9
$SKPOLY
 70
     0
  9
$TDCREATE
 40
2459756.915739629
  9
$TDUCREATE
 40
2459756.832406296
  9
$TDUPDATE
 40
2459756.915750324
  9
$TDUUPDATE
 40
2459756.832416991
  9
$TDINDWG
 40
0.0000000116
  9
$TDUSRTIMER
 40
0.0000000116
  9
$USRTIMER
 70
     1
  9
$ANGBASE
 50
0.0
  9
$ANGDIR
 70
     0
  9
$PDMODE
 70
     0
  9
$PDSIZE
 40
0.0
  9
$PLINEWID
 40
0.0
  9
$SPLFRAME
 70
     0
  9
$SPLINETYPE
 70
     6
  9
$SPLINESEGS
 70
     8
  9
$HANDSEED
  5
1F0
  9
$SURFTAB1
 70
     6
  9
$SURFTAB2
 70
     6
  9
$SURFTYPE
 70
     6
  9
$SURFU
 70
     6
  9
$SURFV
 70
     6
  9
$UCSBASE
  2

  9
$UCSNAME
  2

  9
$UCSORG
 10
0.0
 20
0.0
 30
0.0
  9
$UCSXDIR
 10
1.0
 20
0.0
 30
0.0
  9
$UCSYDIR
 10
0.0
 20
1.0
 30
0.0
  9
$UCSORTHOREF
  2

  9
$UCSORTHOVIEW
 70
     0
  9
$UCSORGTOP
 10
0.0
 20
0.0
 30
0.0
  9
$UCSORGBOTTOM
 10
0.0
 20
0.0
 30
0.0
  9
$UCSORGLEFT
 10
0.0
 20
0.0
 30
0.0
  9
$UCSORGRIGHT
 10
0.0
 20
0.0
 30
0.0
  9
$UCSORGFRONT
 10
0.0
 20
0.0
 30
0.0
  9
$UCSORGBACK
 10
0.0
 20
0.0
 30
0.0
  9
$PUCSBASE
  2

  9
$PUCSNAME
  2

  9
$PUCSORG
 10
0.0
 20
0.0
 30
0.0
  9
$PUCSXDIR
 10
1.0
 20
0.0
 30
0.0
  9
$PUCSYDIR
 10
0.0
 20
1.0
 30
0.0
  9
$PUCSORTHOREF
  2

  9
$PUCSORTHOVIEW
 70
     0
  9
$PUCSORGTOP
 10
0.0
 20
0.0
 30
0.0
  9
$PUCSORGBOTTOM
 10
0.0
 20
0.0
 30
0.0
  9
$PUCSORGLEFT
 10
0.0
 20
0.0
 30
0.0
  9
$PUCSORGRIGHT
 10
0.0
 20
0.0
 30
0.0
  9
$PUCSORGFRONT
 10
0.0
 20
0.0
 30
0.0
  9
$PUCSORGBACK
 10
0.0
 20
0.0
 30
0.0
  9
$USERI1
 70
     0
  9
$USERI2
 70
     0
  9
$USERI3
 70
     0
  9
$USERI4
 70
     0
  9
$USERI5
 70
     0
  9
$USERR1
 40
0.0
  9
$USERR2
 40
0.0
  9
$USERR3
 40
0.0
  9
$USERR4
 40
0.0
  9
$USERR5
 40
0.0
  9
$WORLDVIEW
 70
     1
  9
$SHADEDGE
 70
     3
  9
$SHADEDIF
 70
    70
  9
$TILEMODE
 70
     1
  9
$MAXACTVP
 70
    64
  9
$PINSBASE
 10
0.0
 20
0.0
 30
0.0
  9
$PLIMCHECK
 70
     0
  9
$PEXTMIN
 10
1.000000000000000E+20
 20
1.000000000000000E+20
 30
1.000000000000000E+20
  9
$PEXTMAX
 10
-1.000000000000000E+20
 20
-1.000000000000000E+20
 30
-1.000000000000000E+20
  9
$PLIMMIN
 10
0.0
 20
0.0
  9
$PLIMMAX
 10
12.0
 20
9.0
  9
$UNITMODE
 70
     0
  9
$VISRETAIN
 70
     1
  9
$PLINEGEN
 70
     0
  9
$PSLTSCALE
 70
     1
  9
$TREEDEPTH
 70
  3020
  9
$CMLSTYLE
  2
Standard
  9
$CMLJUST
 70
     0
  9
$CMLSCALE
 40
1.0
  9
$PROXYGRAPHICS
 70
     1
  9
$MEASUREMENT
 70
     0
  9
$CELWEIGHT
370
    -1
  9
$ENDCAPS
280
     0
  9
$JOINSTYLE
280
     0
  9
$LWDISPLAY
290
     0
  9
$INSUNITS
 70
     4
  9
$HYPERLINKBASE
  1

  9
$STYLESHEET
  1

  9
$XEDIT
290
     1
  9
$CEPSNTYPE
380
     0
  9
$PSTYLEMODE
290
     1
  9
$FINGERPRINTGUID
  2
{a38f6d28-a115-409d-9b7d-31ae3ee86801}
  9
$VERSIONGUID
  2
{FAEB1C32-E019-11D5-929B-00C0DF256EC4}
  9
$EXTNAMES
290
     1
  9
$PSVPSCALE
 40
0.0
  9
$OLESTARTUP
290
     0
  9
$SORTENTS
280
   127
  9
$INDEXCTL
280
     0
  9
$HIDETEXT
280
     1
  9
$XCLIPFRAME
290
     0
  9
$HALOGAP
280
     0
  9
$OBSCOLOR
 70
   257
  9
$OBSLTYPE
280
     0
  9
$INTERSECTIONDISPLAY
280
     0
  9
$INTERSECTIONCOLOR
 70
   257
  9
$DIMASSOC
280
     2
  9
$PROJECTNAME
  1

  0
ENDSEC
  0
SECTION
  2
CLASSES
  0
CLASS
  1
ACDBDICTIONARYWDFLT
  2
AcDbDictionaryWithDefault
  3
ObjectDBX Classes
 90
        0
 91
        3
280
     0
281
     0
  0
CLASS
  1
VISUALSTYLE
  2
AcDbVisualStyle
  3
ObjectDBX Classes
 90
     4095
 91
        3
280
     0
281
     0
  0
CLASS
  1
MATERIAL
  2
AcDbMaterial
  3
ObjectDBX Classes
 90
     1153
 91
        3
280
     0
281
     0
  0
CLASS
  1
SCALE
  2
AcDbScale
  3
ObjectDBX Classes
 90
     1153
 91
        3
280
     0
281
     0
  0
CLASS
  1
TABLESTYLE
  2
AcDbTableStyle
  3
ObjectDBX Classes
 90
     4095
 91
        3
280
     0
281
     0
  0
CLASS
  1
MLEADERSTYLE
  2
AcDbMLeaderStyle
  3
ACDB_MLEADERSTYLE_CLASS
 90
     4095
 91
        3
280
     0
281
     0
  0
CLASS
  1
SUN
  2
AcDbSun
  3
SCENEOE
 90
     1153
 91
        3
280
     0
281
     0
  0
CLASS
  1
DICTIONARYVAR
  2
AcDbDictionaryVar
  3
ObjectDBX Classes
 90
        0
 91
        3
280
     0
281
     0
  0
CLASS
  1
CELLSTYLEMAP
  2
AcDbCellStyleMap
  3
ObjectDBX Classes
 90
     1152
 91
        3
280
     0
281
     0
  0
ENDSEC
  0
SECTION
  2
TABLES
  0
TABLE
  2
VPORT
  5
8
102
{ACAD_XDICTIONARY
360
1A9
102
}
330
0
100
AcDbSymbolTable
 70
     1
  0
VPORT
  5
29
330
8
100
AcDbSymbolTableRecord
100
AcDbViewportTableRecord
  2
*Active
 70
     0
 10
0.0
 20
0.0
 11
1.0
 21
1.0
 12
10.42990654205607
 22
4.5
 13
0.0
 23
0.0
 14
0.5
 24
0.5
 15
0.5
 25
0.5
 16
0.0
 26
0.0
 36
1.0
 17
0.0
 27
0.0
 37
0.0
 40
9.0
 41
1.972972972850329
 42
50.0
 43
0.0
 44
0.0
 50
0.0
 51
0.0
 71
     0
 72
   100
 73
     1
 74
     3
 75
     0
 76
     0
 77
     0
 78
     0
281
     0
 65
     1
110
0.0
120
0.0
130
0.0
111
1.0
121
0.0
131
0.0
112
0.0
122
1.0
132
0.0
 79
     0
146
0.0
  0
ENDTAB
  0
TABLE
  2
LTYPE
  5
5
330
0
100
AcDbSymbolTable
 70
     1
  0
LTYPE
  5
14
330
5
100
AcDbSymbolTableRecord
100
AcDbLinetypeTableRecord
  2
ByBlock
 70
     0
  3

 72
    65
 73
     0
 40
0.0
  0
LTYPE
  5
15
330
5
100
AcDbSymbolTableRecord
100
AcDbLinetypeTableRecord
  2
ByLayer
 70
     0
  3

 72
    65
 73
     0
 40
0.0
  0
LTYPE
  5
16
330
5
100
AcDbSymbolTableRecord
100
AcDbLinetypeTableRecord
  2
Continuous
 70
     0
  3
Solid line
 72
    65
 73
     0
 40
0.0
  0
ENDTAB
  0
TABLE
  2
LAYER
  5
2
330
0
100
AcDbSymbolTable
 70
     1
  0
LAYER
  5
10
330
2
100
AcDbSymbolTableRecord
100
AcDbLayerTableRecord
  2
0
 70
     0
 62
     7
  6
Continuous
370
    -3
390
F
  0
ENDTAB
  0
TABLE
  2
STYLE
  5
3
330
0
100
AcDbSymbolTable
 70
     1
  0
STYLE
  5
11
330
3
100
AcDbSymbolTableRecord
100
AcDbTextStyleTableRecord
  2
Standard
 70
     0
 40
0.0
 41
1.0
 50
0.0
 71
     0
 42
0.2
  3
txt
  4

  0
ENDTAB
  0
TABLE
  2
VIEW
  5
6
330
0
100
AcDbSymbolTable
 70
     0
  0
ENDTAB
  0
TABLE
  2
UCS
  5
7
330
0
100
AcDbSymbolTable
 70
     0
  0
ENDTAB
  0
TABLE
  2
APPID
  5
9
330
0
100
AcDbSymbolTable
 70
     2
  0
APPID
  5
12
330
9
100
AcDbSymbolTableRecord
100
AcDbRegAppTableRecord
  2
ACAD
 70
     0
  0
APPID
  5
1E8
330
9
100
AcDbSymbolTableRecord
100
AcDbRegAppTableRecord
  2
ACAD_MLEADERVER
 70
     0
  0
ENDTAB
  0
TABLE
  2
DIMSTYLE
  5
A
330
0
100
AcDbSymbolTable
 70
     1
100
AcDbDimStyleTable
  0
DIMSTYLE
105
27
330
A
100
AcDbSymbolTableRecord
100
AcDbDimStyleTableRecord
  2
STANDARD_ACAD
 70
     0
178
     0
340
11
  0
ENDTAB
  0
TABLE
  2
BLOCK_RECORD
  5
1
330
0
100
AcDbSymbolTable
 70
     1
  0
BLOCK_RECORD
  5
1F
330
1
100
AcDbSymbolTableRecord
100
AcDbBlockTableRecord
  2
*Model_Space
340
22
  0
BLOCK_RECORD
  5
1B
330
1
100
AcDbSymbolTableRecord
100
AcDbBlockTableRecord
  2
*Paper_Space
340
1E
  0
BLOCK_RECORD
  5
23
330
1
100
AcDbSymbolTableRecord
100
AcDbBlockTableRecord
  2
*Paper_Space0
340
26
  0
ENDTAB
  0
ENDSEC
  0
SECTION
  2
BLOCKS
  0
BLOCK
  5
20
330
1F
100
AcDbEntity
  8
0
100
AcDbBlockBegin
  2
*Model_Space
 70
     0
 10
0.0
 20
0.0
 30
0.0
  3
*Model_Space
  1

  0
ENDBLK
  5
21
330
1F
100
AcDbEntity
  8
0
100
AcDbBlockEnd
  0
BLOCK
  5
1C
330
1B
100
AcDbEntity
 67
     1
  8
0
100
AcDbBlockBegin
  2
*Paper_Space
 70
     0
 10
0.0
 20
0.0
 30
0.0
  3
*Paper_Space
  1

  0
ENDBLK
  5
1D
330
1B
100
AcDbEntity
 67
     1
  8
0
100
AcDbBlockEnd
  0
BLOCK
  5
24
330
23
100
AcDbEntity
  8
0
100
AcDbBlockBegin
  2
*Paper_Space0
 70
     0
 10
0.0
 20
0.0
 30
0.0
  3
*Paper_Space0
  1

  0
ENDBLK
  5
25
330
23
100
AcDbEntity
  8
0
100
AcDbBlockEnd
  0
ENDSEC
  0
SECTION
  2
ENTITIES
  0
POLYLINE
  5
6E
330
1F
100
AcDbEntity
  8
0
100
AcDb2dPolyline
 66
     1
 10
0.0
 20
0.0
 30
0.0
 70
     1
  0
VERTEX
  5
6F
330
6E
100
AcDbEntity
  8
0
100
AcDbVertex
100
AcDb2dVertex
 10
4287.816685709816
 20
2565.524003394625
 30
0.0
  0
VERTEX
  5
70
330
6E
100
AcDbEntity
  8
0
100
AcDbVertex
100
AcDb2dVertex
 10
4707.816685709817
 20
2565.524003394625
 30
0.0
  0
VERTEX
  5
71
330
6E
100
AcDbEntity
  8
0
100
AcDbVertex
100
AcDb2dVertex
 10
4707.816685709817
 20
2265.524003394626
 30
0.0
  0
VERTEX
  5
72
330
6E
100
AcDbEntity
  8
0
100
AcDbVertex
100
AcDb2dVertex
 10
4287.816685709816
 20
2265.524003394626
 30
0.0
  0
SEQEND
  5
73
330
6E
100
AcDbEntity
  8
0
  0
POLYLINE
  5
74
330
1F
100
AcDbEntity
  8
0
100
AcDb2dPolyline
 66
     1
 10
0.0
 20
0.0
 30
0.0
 70
     1
  0
VERTEX
  5
75
330
74
100
AcDbEntity
  8
0
100
AcDbVertex
100
AcDb2dVertex
 10
4287.816685709816
 20
2254.39018454836
 30
0.0
  0
VERTEX
  5
76
330
74
100
AcDbEntity
  8
0
100
AcDbVertex
100
AcDb2dVertex
 10
4707.816685709817
 20
2254.39018454836
 30
0.0
  0
VERTEX
  5
77
330
74
100
AcDbEntity
  8
0
100
AcDbVertex
100
AcDb2dVertex
 10
4707.816685709817
 20
1954.39018454836
 30
0.0
  0
VERTEX
  5
78
330
74
100
AcDbEntity
  8
0
100
AcDbVertex
100
AcDb2dVertex
 10
4287.816685709816
 20
1954.39018454836
 30
0.0
  0
SEQEND
  5
79
330
74
100
AcDbEntity
  8
0
  0
CIRCLE
  5
7A
330
1F
100
AcDbEntity
  8
0
 62
     5
420
      255
100
AcDbCircle
 10
4544.12128630545
 20
1843.877493587745
 30
0.0
 40
66.58772826020268
  0
LINE
  5
7B
330
1F
100
AcDbEntity
  8
0
 62
     5
420
      255
100
AcDbLine
 10
4464.434294180541
 20
1868.349892859821
 30
0.0
 11
4469.20063895997
 21
1866.801213561948
 31
0.0
  0
ARC
  5
7C
330
1F
100
AcDbEntity
  8
0
 62
     5
420
      255
100
AcDbCircle
 10
-4544.121286305418
 20
1843.877493587646
 30
0.0
 40
78.34922039255487
210
0.0
220
0.0
230
-1.0
100
AcDbArc
 50
17.01271346589482
 51
18.98728653406072
  0
LINE
  5
7D
330
1F
100
AcDbEntity
  8
0
 62
     5
420
      255
100
AcDbLine
 10
4470.034984844781
 20
1869.369066155945
 30
0.0
 11
4465.268640065353
 21
1870.917745453817
 31
0.0
  0
LINE
  5
7E
330
1F
100
AcDbEntity
  8
0
 62
     5
420
      255
100
AcDbLine
 10
4461.087548237725
 20
1851.247254951057
 30
0.0
 11
4466.071725479348
 21
1850.723396813649
 31
0.0
  0
ARC
  5
7F
330
1F
100
AcDbEntity
  8
0
 62
     5
420
      255
100
AcDbCircle
 10
-4544.12128630543
 20
1843.877493587641
 30
0.0
 40
78.3492203925734
210
0.0
220
0.0
230
-1.0
100
AcDbArc
 50
5.012713465896561
 51
6.987286534062056
  0
LINE
  5
80
330
1F
100
AcDbEntity
  8
0
 62
     5
420
      255
100
AcDbLine
 10
4466.35395233017
 20
1853.408605931143
 30
0.0
 11
4461.369775088548
 21
1853.932464068552
 31
0.0
  0
LINE
  5
81
330
1F
100
AcDbEntity
  8
0
 62
     5
420
      255
100
AcDbLine
 10
4461.369775088548
 20
1833.822523106673
 30
0.0
 11
4466.35395233017
 21
1834.346381244083
 31
0.0
  0
ARC
  5
82
330
1F
100
AcDbEntity
  8
0
 62
     5
420
      255
100
AcDbCircle
 10
-4544.121286305423
 20
1843.877493587584
 30
0.0
 40
78.34922039256702
210
0.0
220
0.0
230
-1.0
100
AcDbArc
 50
353.012713465938
 51
354.9872865341035
  0
LINE
  5
83
330
1F
100
AcDbEntity
  8
0
 62
     5
420
      255
100
AcDbLine
 10
4466.071725479348
 20
1837.031590361577
 30
0.0
 11
4461.087548237725
 21
1836.507732224166
 31
0.0
  0
LINE
  5
84
330
1F
100
AcDbEntity
  8
0
 62
     5
420
      255
100
AcDbLine
 10
4465.268640065353
 20
1816.837241721407
 30
0.0
 11
4470.034984844781
 21
1818.38592101928
 31
0.0
  0
ARC
  5
85
330
1F
100
AcDbEntity
  8
0
 62
     5
420
      255
100
AcDbCircle
 10
-4544.121286305423
 20
1843.877493587579
 30
0.0
 40
78.34922039256023
210
0.0
220
0.0
230
-1.0
100
AcDbArc
 50
341.0127134659406
 51
342.9872865341067
  0
LINE
  5
86
330
1F
100
AcDbEntity
  8
0
 62
     5
420
      255
100
AcDbLine
 10
4469.20063895997
 20
1820.953773613277
 30
0.0
 11
4464.434294180541
 21
1819.405094315404
 31
0.0
  0
LINE
  5
87
330
1F
100
AcDbEntity
  8
0
 62
     5
420
      255
100
AcDbLine
 10
4472.613744059828
 20
1801.033749096218
 30
0.0
 11
4476.953944238741
 21
1803.539564837851
 31
0.0
  0
ARC
  5
88
330
1F
100
AcDbEntity
  8
0
 62
     5
420
      255
100
AcDbCircle
 10
-4544.121286305396
 20
1843.877493587651
 30
0.0
 40
78.34922039256665
210
0.0
220
0.0
230
-1.0
100
AcDbArc
 50
329.0127134658833
 51
330.9872865340491
  0
LINE
  5
89
330
1F
100
AcDbEntity
  8
0
 62
     5
420
      255
100
AcDbLine
 10
4475.60394423874
 20
1805.877833428068
 30
0.0
 11
4471.263744059829
 21
1803.372017686436
 31
0.0
  0
LINE
  5
8A
330
1F
100
AcDbEntity
  8
0
 62
     5
420
      255
100
AcDbLine
 10
4483.084070781693
 20
1787.1027336924
 30
0.0
 11
4486.808438785679
 21
1790.456169705643
 31
0.0
  0
ARC
  5
8B
330
1F
100
AcDbEntity
  8
0
 62
     5
420
      255
100
AcDbCircle
 10
-4544.121286305407
 20
1843.877493587591
 30
0.0
 40
78.34922039254445
210
0.0
220
0.0
230
-1.0
100
AcDbArc
 50
317.012713465922
 51
318.9872865340869
  0
LINE
  5
8C
330
1F
100
AcDbEntity
  8
0
 62
     5
420
      255
100
AcDbLine
 10
4485.001786148511
 20
1792.462660734431
 30
0.0
 11
4481.277418144524
 21
1789.109224721187
 31
0.0
  0
LINE
  5
8D
330
1F
100
AcDbEntity
  8
0
 62
     5
420
      255
100
AcDbLine
 10
4494.037670826187
 20
1777.240067912715
 30
0.0
 11
4496.983433901974
 21
1781.294562952221
 31
0.0
  0
ARC
  5
8E
330
1F
100
AcDbEntity
  8
0
 62
     5
420
      255
100
AcDbCircle
 10
4544.121286305469
 20
1843.877493587627
 30
0.0
 40
78.34922039260871
100
AcDbArc
 50
233.012713465895
 51
234.9872865340606
  0
LINE
  5
8F
330
1F
100
AcDbEntity
  8
0
 62
     5
420
      255
100
AcDbLine
 10
4499.167779786787
 20
1779.70754277103
 30
0.0
 11
4496.222016711
 21
1775.653047731526
 31
0.0
  0
LINE
  5
90
330
1F
100
AcDbEntity
  8
0
 62
     5
420
      255
100
AcDbLine
 10
4508.986817832145
 20
1768.28328636808
 30
0.0
 11
4511.02523199798
 21
1772.861639544994
 31
0.0
  0
ARC
  5
91
330
1F
100
AcDbEntity
  8
0
 62
     5
420
      255
100
AcDbCircle
 10
4544.121286305409
 20
1843.877493587626
 30
0.0
 40
78.34922039257704
100
AcDbArc
 50
245.0127134659293
 51
246.9872865340948
  0
LINE
  5
92
330
1F
100
AcDbEntity
  8
0
 62
     5
420
      255
100
AcDbLine
 10
4513.491804733615
 20
1771.76345060869
 30
0.0
 11
4511.45339056778
 21
1767.185097431776
 31
0.0
  0
LINE
  5
93
330
1F
100
AcDbEntity
  8
0
 62
     5
420
      255
100
AcDbLine
 10
4528.112508226251
 20
1762.068972854982
 30
0.0
 11
4529.154485001692
 21
1766.971088166099
 31
0.0
  0
ARC
  5
94
330
1F
100
AcDbEntity
  8
0
 62
     5
420
      255
100
AcDbCircle
 10
-4544.121286305392
 20
1843.877493587601
 30
0.0
 40
78.34922039255311
210
0.0
220
0.0
230
-1.0
100
AcDbArc
 50
281.0127134658978
 51
282.9872865340642
  0
LINE
  5
95
330
1F
100
AcDbEntity
  8
0
 62
     5
420
      255
100
AcDbLine
 10
4526.51348647971
 20
1767.532449731306
 30
0.0
 11
4525.47150970427
 21
1762.63033442019
 31
0.0
  0
LINE
  5
96
330
1F
100
AcDbEntity
  8
0
 62
     5
420
      255
100
AcDbLine
 10
4545.471286305422
 20
1760.528273195042
 30
0.0
 11
4545.471286305422
 21
1765.539904678306
 31
0.0
  0
ARC
  5
97
330
1F
100
AcDbEntity
  8
0
 62
     5
420
      255
100
AcDbCircle
 10
-4544.121286305422
 20
1843.877493587572
 30
0.0
 40
78.34922039252912
210
0.0
220
0.0
230
-1.0
100
AcDbArc
 50
269.0127134659169
 51
270.987286534083
  0
LINE
  5
98
330
1F
100
AcDbEntity
  8
0
 62
     5
420
      255
100
AcDbLine
 10
4542.771286305423
 20
1765.539904678306
 30
0.0
 11
4542.771286305423
 21
1760.528273195042
 31
0.0
  0
LINE
  5
99
330
1F
100
AcDbEntity
  8
0
 62
     5
420
      255
100
AcDbLine
 10
4562.771062906573
 20
1762.63033442019
 30
0.0
 11
4561.729086131133
 21
1767.532449731306
 31
0.0
  0
ARC
  5
9A
330
1F
100
AcDbEntity
  8
0
 62
     5
420
      255
100
AcDbCircle
 10
-4544.121286305449
 20
1843.877493587584
 30
0.0
 40
78.34922039253732
210
0.0
220
0.0
230
-1.0
100
AcDbArc
 50
257.0127134659318
 51
258.9872865340979
  0
LINE
  5
9B
330
1F
100
AcDbEntity
  8
0
 62
     5
420
      255
100
AcDbLine
 10
4559.088087609152
 20
1766.971088166099
 30
0.0
 11
4560.130064384591
 21
1762.068972854982
 31
0.0
  0
LINE
  5
9C
330
1F
100
AcDbEntity
  8
0
 62
     5
420
      255
100
AcDbLine
 10
4579.255754778698
 20
1768.28328636808
 30
0.0
 11
4577.217340612863
 21
1772.861639544994
 31
0.0
  0
ARC
  5
9D
330
1F
100
AcDbEntity
  8
0
 62
     5
420
      255
100
AcDbCircle
 10
-4544.121286305435
 20
1843.877493587599
 30
0.0
 40
78.34922039255292
210
0.0
220
0.0
230
-1.0
100
AcDbArc
 50
245.0127134659217
 51
246.9872865340872
  0
LINE
  5
9E
330
1F
100
AcDbEntity
  8
0
 62
     5
420
      255
100
AcDbLine
 10
4574.750767877229
 20
1771.76345060869
 30
0.0
 11
4576.789182043063
 21
1767.185097431776
 31
0.0
  0
LINE
  5
9F
330
1F
100
AcDbEntity
  8
0
 62
     5
420
      255
100
AcDbLine
 10
4594.204901784655
 20
1777.240067912715
 30
0.0
 11
4591.259138708869
 21
1781.294562952219
 31
0.0
  0
ARC
  5
A0
330
1F
100
AcDbEntity
  8
0
 62
     5
420
      255
100
AcDbCircle
 10
-4544.121286305438
 20
1843.87749358762
 30
0.0
 40
78.34922039256745
210
0.0
220
0.0
230
-1.0
100
AcDbArc
 50
233.0127134659304
 51
234.9872865340961
  0
LINE
  5
A1
330
1F
100
AcDbEntity
  8
0
 62
     5
420
      255
100
AcDbLine
 10
4589.074792824056
 20
1779.70754277103
 30
0.0
 11
4592.020555899843
 21
1775.653047731525
 31
0.0
  0
LINE
  5
A2
330
1F
100
AcDbEntity
  8
0
 62
     5
420
      255
100
AcDbLine
 10
4606.96515446632
 20
1789.109224721187
 30
0.0
 11
4603.240786462332
 21
1792.462660734431
 31
0.0
  0
ARC
  5
A3
330
1F
100
AcDbEntity
  8
0
 62
     5
420
      255
100
AcDbCircle
 10
-4544.121286305416
 20
1843.877493587578
 30
0.0
 40
78.3492203925517
210
0.0
220
0.0
230
-1.0
100
AcDbArc
 50
221.0127134658963
 51
222.9872865340624
  0
LINE
  5
A4
330
1F
100
AcDbEntity
  8
0
 62
     5
420
      255
100
AcDbLine
 10
4601.434133825164
 20
1790.456169705642
 30
0.0
 11
4605.158501829151
 21
1787.102733692399
 31
0.0
  0
LINE
  5
A5
330
1F
100
AcDbEntity
  8
0
 62
     5
420
      255
100
AcDbLine
 10
4616.978828551014
 20
1803.372017686436
 30
0.0
 11
4612.638628372104
 21
1805.877833428067
 31
0.0
  0
ARC
  5
A6
330
1F
100
AcDbEntity
  8
0
 62
     5
420
      255
100
AcDbCircle
 10
-4544.121286305462
 20
1843.877493587642
 30
0.0
 40
78.34922039255119
210
0.0
220
0.0
230
-1.0
100
AcDbArc
 50
209.0127134659508
 51
210.9872865341169
  0
LINE
  5
A7
330
1F
100
AcDbEntity
  8
0
 62
     5
420
      255
100
AcDbLine
 10
4611.288628372103
 20
1803.53956483785
 30
0.0
 11
4615.628828551014
 21
1801.033749096218
 31
0.0
  0
LINE
  5
A8
330
1F
100
AcDbEntity
  8
0
 62
     5
420
      255
100
AcDbLine
 10
4623.808278430303
 20
1819.405094315403
 30
0.0
 11
4619.041933650875
 21
1820.953773613275
 31
0.0
  0
ARC
  5
A9
330
1F
100
AcDbEntity
  8
0
 62
     5
420
      255
100
AcDbCircle
 10
-4544.121286305452
 20
1843.877493587604
 30
0.0
 40
78.34922039253883
210
0.0
220
0.0
230
-1.0
100
AcDbArc
 50
197.0127134659194
 51
198.9872865340852
  0
LINE
  5
AA
330
1F
100
AcDbEntity
  8
0
 62
     5
420
      255
100
AcDbLine
 10
4618.207587766063
 20
1818.385921019279
 30
0.0
 11
4622.973932545491
 21
1816.837241721406
 31
0.0
  0
LINE
  5
AB
330
1F
100
AcDbEntity
  8
0
 62
     5
420
      255
100
AcDbLine
 10
4627.155024373119
 20
1836.507732224166
 30
0.0
 11
4622.170847131497
 21
1837.031590361576
 31
0.0
  0
ARC
  5
AC
330
1F
100
AcDbEntity
  8
0
 62
     5
420
      255
100
AcDbCircle
 10
-4544.121286305401
 20
1843.877493587582
 30
0.0
 40
78.34922039258804
210
0.0
220
0.0
230
-1.0
100
AcDbArc
 50
185.0127134658938
 51
186.9872865340597
  0
LINE
  5
AD
330
1F
100
AcDbEntity
  8
0
 62
     5
420
      255
100
AcDbLine
 10
4621.888620280675
 20
1834.346381244081
 30
0.0
 11
4626.872797522297
 21
1833.822523106672
 31
0.0
  0
LINE
  5
AE
330
1F
100
AcDbEntity
  8
0
 62
     5
420
      255
100
AcDbLine
 10
4626.872797522297
 20
1853.932464068552
 30
0.0
 11
4621.888620280675
 21
1853.408605931142
 31
0.0
  0
ARC
  5
AF
330
1F
100
AcDbEntity
  8
0
 62
     5
420
      255
100
AcDbCircle
 10
-4544.121286305428
 20
1843.877493587641
 30
0.0
 40
78.34922039256067
210
0.0
220
0.0
230
-1.0
100
AcDbArc
 50
173.0127134659379
 51
174.9872865341036
  0
LINE
  5
B0
330
1F
100
AcDbEntity
  8
0
 62
     5
420
      255
100
AcDbLine
 10
4622.170847131497
 20
1850.723396813648
 30
0.0
 11
4627.155024373119
 21
1851.247254951056
 31
0.0
  0
LINE
  5
B1
330
1F
100
AcDbEntity
  8
0
 62
     5
420
      255
100
AcDbLine
 10
4622.973932545491
 20
1870.917745453817
 30
0.0
 11
4618.207587766063
 21
1869.369066155945
 31
0.0
  0
ARC
  5
B2
330
1F
100
AcDbEntity
  8
0
 62
     5
420
      255
100
AcDbCircle
 10
-4544.121286305424
 20
1843.877493587619
 30
0.0
 40
78.34922039256574
210
0.0
220
0.0
230
-1.0
100
AcDbArc
 50
161.0127134659209
 51
162.9872865340867
  0
LINE
  5
B3
330
1F
100
AcDbEntity
  8
0
 62
     5
420
      255
100
AcDbLine
 10
4619.041933650875
 20
1866.801213561948
 30
0.0
 11
4623.808278430303
 21
1868.34989285982
 31
0.0
  0
LINE
  5
B4
330
1F
100
AcDbEntity
  8
0
 62
     5
420
      255
100
AcDbLine
 10
4615.628828551016
 20
1886.721238079006
 30
0.0
 11
4611.288628372104
 21
1884.215422337375
 31
0.0
  0
ARC
  5
B5
330
1F
100
AcDbEntity
  8
0
 62
     5
420
      255
100
AcDbCircle
 10
-4544.121286305393
 20
1843.877493587603
 30
0.0
 40
78.34922039259942
210
0.0
220
0.0
230
-1.0
100
AcDbArc
 50
149.0127134659218
 51
150.9872865340874
  0
LINE
  5
B6
330
1F
100
AcDbEntity
  8
0
 62
     5
420
      255
100
AcDbLine
 10
4612.638628372104
 20
1881.877153747156
 30
0.0
 11
4616.978828551016
 21
1884.382969488788
 31
0.0
  0
LINE
  5
B7
330
1F
100
AcDbEntity
  8
0
 62
     5
420
      255
100
AcDbLine
 10
4605.158501829151
 20
1900.652253482824
 30
0.0
 11
4601.434133825165
 21
1897.298817469582
 31
0.0
  0
ARC
  5
B8
330
1F
100
AcDbEntity
  8
0
 62
     5
420
      255
100
AcDbCircle
 10
-4544.121286305409
 20
1843.877493587638
 30
0.0
 40
78.34922039256261
210
0.0
220
0.0
230
-1.0
100
AcDbArc
 50
137.0127134659382
 51
138.9872865341035
  0
LINE
  5
B9
330
1F
100
AcDbEntity
  8
0
 62
     5
420
      255
100
AcDbLine
 10
4603.240786462333
 20
1895.292326440793
 30
0.0
 11
4606.96515446632
 21
1898.645762454036
 31
0.0
  0
LINE
  5
BA
330
1F
100
AcDbEntity
  8
0
 62
     5
420
      255
100
AcDbLine
 10
4592.020555899844
 20
1912.101939443699
 30
0.0
 11
4589.074792824056
 21
1908.047444404195
 31
0.0
  0
ARC
  5
BB
330
1F
100
AcDbEntity
  8
0
 62
     5
420
      255
100
AcDbCircle
 10
-4544.121286305399
 20
1843.877493587623
 30
0.0
 40
78.34922039257484
210
0.0
220
0.0
230
-1.0
100
AcDbArc
 50
125.012713465935
 51
126.9872865341012
  0
LINE
  5
BC
330
1F
100
AcDbEntity
  8
0
 62
     5
420
      255
100
AcDbLine
 10
4591.259138708869
 20
1906.460424223004
 30
0.0
 11
4594.204901784656
 21
1910.514919262509
 31
0.0
  0
LINE
  5
BD
330
1F
100
AcDbEntity
  8
0
 62
     5
420
      255
100
AcDbLine
 10
4576.789182043063
 20
1920.569889743449
 30
0.0
 11
4574.750767877229
 21
1915.991536566534
 31
0.0
  0
ARC
  5
BE
330
1F
100
AcDbEntity
  8
0
 62
     5
420
      255
100
AcDbCircle
 10
-4544.121286305421
 20
1843.877493587623
 30
0.0
 40
78.34922039256053
210
0.0
220
0.0
230
-1.0
100
AcDbArc
 50
113.0127134659221
 51
114.9872865340888
  0
LINE
  5
BF
330
1F
100
AcDbEntity
  8
0
 62
     5
420
      255
100
AcDbLine
 10
4577.217340612864
 20
1914.893347630229
 30
0.0
 11
4579.255754778698
 21
1919.471700807144
 31
0.0
  0
LINE
  5
C0
330
1F
100
AcDbEntity
  8
0
 62
     5
420
      255
100
AcDbLine
 10
4560.130064384593
 20
1925.686014320241
 30
0.0
 11
4559.088087609152
 21
1920.783899009126
 31
0.0
  0
ARC
  5
C1
330
1F
100
AcDbEntity
  8
0
 62
     5
420
      255
100
AcDbCircle
 10
-4544.121286305396
 20
1843.877493587639
 30
0.0
 40
78.3492203925492
210
0.0
220
0.0
230
-1.0
100
AcDbArc
 50
101.0127134659397
 51
102.9872865341058
  0
LINE
  5
C2
330
1F
100
AcDbEntity
  8
0
 62
     5
420
      255
100
AcDbLine
 10
4561.729086131133
 20
1920.222537443917
 30
0.0
 11
4562.771062906573
 21
1925.124652755034
 31
0.0
  0
ARC
  5
C3
330
1F
100
AcDbEntity
  8
0
 62
     5
420
      255
100
AcDbCircle
 10
-4544.121286305426
 20
1843.87749358761
 30
0.0
 40
83.34922039257275
210
0.0
220
0.0
230
-1.0
100
AcDbArc
 50
78.92805528769617
 51
89.07194471230058
  0
LINE
  5
C4
330
1F
100
AcDbEntity
  8
0
 62
     5
420
      255
100
AcDbLine
 10
4542.771286305423
 20
1927.215780347356
 30
0.0
 11
4542.771286305423
 21
1922.215082496919
 31
0.0
  0
LINE
  5
C5
330
1F
100
AcDbEntity
  8
0
 62
     5
420
      255
100
AcDbLine
 10
4542.771286305423
 20
1922.215082496919
 30
0.0
 11
4545.471286305422
 21
1922.215082496919
 31
0.0
  0
LINE
  5
C6
330
1F
100
AcDbEntity
  8
0
 62
     5
420
      255
100
AcDbLine
 10
4545.471286305422
 20
1922.215082496919
 30
0.0
 11
4545.471286305422
 21
1927.215780347356
 31
0.0
  0
ARC
  5
C7
330
1F
100
AcDbEntity
  8
0
 62
     5
420
      255
100
AcDbCircle
 10
-4544.12128630542
 20
1843.877493587612
 30
0.0
 40
83.34922039257029
210
0.0
220
0.0
230
-1.0
100
AcDbArc
 50
90.92805528769946
 51
101.0719447123035
  0
POLYLINE
  5
C8
330
1F
100
AcDbEntity
  8
0
 62
     5
420
      255
100
AcDb2dPolyline
 66
     1
 10
0.0
 20
0.0
 30
0.0
  0
VERTEX
  5
C9
330
C8
100
AcDbEntity
  8
0
 62
     5
420
      255
100
AcDbVertex
100
AcDb2dVertex
 10
4471.263744059829
 20
1884.382969488788
 30
0.0
  0
VERTEX
  5
CA
330
C8
100
AcDbEntity
  8
0
 62
     5
420
      255
100
AcDbVertex
100
AcDb2dVertex
 10
4475.60394423874
 20
1881.877153747157
 30
0.0
  0
VERTEX
  5
CB
330
C8
100
AcDbEntity
  8
0
 62
     5
420
      255
100
AcDbVertex
100
AcDb2dVertex
 10
4476.953944238741
 20
1884.215422337375
 30
0.0
  0
VERTEX
  5
CC
330
C8
100
AcDbEntity
  8
0
 62
     5
420
      255
100
AcDbVertex
100
AcDb2dVertex
 10
4472.613744059828
 20
1886.721238079007
 30
0.0
  0
SEQEND
  5
CD
330
C8
100
AcDbEntity
  8
0
 62
     5
420
      255
  0
POLYLINE
  5
CE
330
1F
100
AcDbEntity
  8
0
 62
     5
420
      255
100
AcDb2dPolyline
 66
     1
 10
0.0
 20
0.0
 30
0.0
  0
VERTEX
  5
CF
330
CE
100
AcDbEntity
  8
0
 62
     5
420
      255
100
AcDbVertex
100
AcDb2dVertex
 10
4481.277418144525
 20
1898.645762454036
 30
0.0
  0
VERTEX
  5
D0
330
CE
100
AcDbEntity
  8
0
 62
     5
420
      255
100
AcDbVertex
100
AcDb2dVertex
 10
4485.001786148512
 20
1895.292326440793
 30
0.0
  0
VERTEX
  5
D1
330
CE
100
AcDbEntity
  8
0
 62
     5
420
      255
100
AcDbVertex
100
AcDb2dVertex
 10
4486.808438785679
 20
1897.298817469582
 30
0.0
  0
VERTEX
  5
D2
330
CE
100
AcDbEntity
  8
0
 62
     5
420
      255
100
AcDbVertex
100
AcDb2dVertex
 10
4483.084070781693
 20
1900.652253482824
 30
0.0
  0
SEQEND
  5
D3
330
CE
100
AcDbEntity
  8
0
 62
     5
420
      255
  0
POLYLINE
  5
D4
330
1F
100
AcDbEntity
  8
0
 62
     5
420
      255
100
AcDb2dPolyline
 66
     1
 10
0.0
 20
0.0
 30
0.0
  0
VERTEX
  5
D5
330
D4
100
AcDbEntity
  8
0
 62
     5
420
      255
100
AcDbVertex
100
AcDb2dVertex
 10
4494.037670826188
 20
1910.51491926251
 30
0.0
  0
VERTEX
  5
D6
330
D4
100
AcDbEntity
  8
0
 62
     5
420
      255
100
AcDbVertex
100
AcDb2dVertex
 10
4496.983433901974
 20
1906.460424223004
 30
0.0
  0
VERTEX
  5
D7
330
D4
100
AcDbEntity
  8
0
 62
     5
420
      255
100
AcDbVertex
100
AcDb2dVertex
 10
4499.167779786787
 20
1908.047444404194
 30
0.0
  0
VERTEX
  5
D8
330
D4
100
AcDbEntity
  8
0
 62
     5
420
      255
100
AcDbVertex
100
AcDb2dVertex
 10
4496.222016711
 20
1912.101939443699
 30
0.0
  0
SEQEND
  5
D9
330
D4
100
AcDbEntity
  8
0
 62
     5
420
      255
  0
POLYLINE
  5
DA
330
1F
100
AcDbEntity
  8
0
 62
     5
420
      255
100
AcDb2dPolyline
 66
     1
 10
0.0
 20
0.0
 30
0.0
  0
VERTEX
  5
DB
330
DA
100
AcDbEntity
  8
0
 62
     5
420
      255
100
AcDbVertex
100
AcDb2dVertex
 10
4508.986817832145
 20
1919.471700807144
 30
0.0
  0
VERTEX
  5
DC
330
DA
100
AcDbEntity
  8
0
 62
     5
420
      255
100
AcDbVertex
100
AcDb2dVertex
 10
4511.02523199798
 20
1914.89334763023
 30
0.0
  0
VERTEX
  5
DD
330
DA
100
AcDbEntity
  8
0
 62
     5
420
      255
100
AcDbVertex
100
AcDb2dVertex
 10
4513.491804733615
 20
1915.991536566535
 30
0.0
  0
VERTEX
  5
DE
330
DA
100
AcDbEntity
  8
0
 62
     5
420
      255
100
AcDbVertex
100
AcDb2dVertex
 10
4511.45339056778
 20
1920.569889743449
 30
0.0
  0
SEQEND
  5
DF
330
DA
100
AcDbEntity
  8
0
 62
     5
420
      255
  0
POLYLINE
  5
E0
330
1F
100
AcDbEntity
  8
0
 62
     5
420
      255
100
AcDb2dPolyline
 66
     1
 10
0.0
 20
0.0
 30
0.0
  0
VERTEX
  5
E1
330
E0
100
AcDbEntity
  8
0
 62
     5
420
      255
100
AcDbVertex
100
AcDb2dVertex
 10
4525.47150970427
 20
1925.124652755034
 30
0.0
  0
VERTEX
  5
E2
330
E0
100
AcDbEntity
  8
0
 62
     5
420
      255
100
AcDbVertex
100
AcDb2dVertex
 10
4526.51348647971
 20
1920.222537443917
 30
0.0
  0
VERTEX
  5
E3
330
E0
100
AcDbEntity
  8
0
 62
     5
420
      255
100
AcDbVertex
100
AcDb2dVertex
 10
4529.154485001692
 20
1920.783899009125
 30
0.0
  0
VERTEX
  5
E4
330
E0
100
AcDbEntity
  8
0
 62
     5
420
      255
100
AcDbVertex
100
AcDb2dVertex
 10
4528.112508226251
 20
1925.686014320241
 30
0.0
  0
SEQEND
  5
E5
330
E0
100
AcDbEntity
  8
0
 62
     5
420
      255
  0
ARC
  5
E6
330
1F
100
AcDbEntity
  8
0
 62
     5
420
      255
100
AcDbCircle
 10
4544.121286305422
 20
1843.877493587612
 30
0.0
 40
78.34922039256998
100
AcDbArc
 50
89.01271346591946
 51
89.0719447122918
  0
ARC
  5
E7
330
1F
100
AcDbEntity
  8
0
 62
     5
420
      255
100
AcDbCircle
 10
4544.121286305422
 20
1843.877493587612
 30
0.0
 40
78.34922039256998
100
AcDbArc
 50
90.92805528770819
 51
90.98728653408054
  0
ARC
  5
E8
330
1F
100
AcDbEntity
  8
0
 62
     5
420
      255
100
AcDbCircle
 10
4544.121286305422
 20
1843.877493587612
 30
0.0
 40
83.34922039256998
100
AcDbArc
 50
66.92805528768747
 51
77.0719447123009
  0
ARC
  5
E9
330
1F
100
AcDbEntity
  8
0
 62
     5
420
      255
100
AcDbCircle
 10
4544.121286305422
 20
1843.877493587612
 30
0.0
 40
83.34922039256998
100
AcDbArc
 50
54.92805528768427
 51
65.07194471229549
  0
ARC
  5
EA
330
1F
100
AcDbEntity
  8
0
 62
     5
420
      255
100
AcDbCircle
 10
4544.121286305422
 20
1843.877493587612
 30
0.0
 40
83.34922039256998
100
AcDbArc
 50
42.9280552877046
 51
53.07194471231133
  0
ARC
  5
EB
330
1F
100
AcDbEntity
  8
0
 62
     5
420
      255
100
AcDbCircle
 10
4544.121286305422
 20
1843.877493587612
 30
0.0
 40
83.34922039256998
100
AcDbArc
 50
30.92805528768787
 51
41.0719447123134
  0
ARC
  5
EC
330
1F
100
AcDbEntity
  8
0
 62
     5
420
      255
100
AcDbCircle
 10
4544.121286305422
 20
1843.877493587612
 30
0.0
 40
83.34922039256998
100
AcDbArc
 50
18.92805528770318
 51
29.0719447123041
  0
ARC
  5
ED
330
1F
100
AcDbEntity
  8
0
 62
     5
420
      255
100
AcDbCircle
 10
4544.121286305422
 20
1843.877493587612
 30
0.0
 40
83.34922039256998
100
AcDbArc
 50
6.928055287700379
 51
17.07194471229992
  0
ARC
  5
EE
330
1F
100
AcDbEntity
  8
0
 62
     5
420
      255
100
AcDbCircle
 10
4544.121286305422
 20
1843.877493587612
 30
0.0
 40
83.34922039256998
100
AcDbArc
 50
354.9280552876933
 51
5.071944712306575
  0
ARC
  5
EF
330
1F
100
AcDbEntity
  8
0
 62
     5
420
      255
100
AcDbCircle
 10
4544.121286305422
 20
1843.877493587612
 30
0.0
 40
83.34922039256998
100
AcDbArc
 50
342.9280552877002
 51
353.0719447122996
  0
ARC
  5
F0
330
1F
100
AcDbEntity
  8
0
 62
     5
420
      255
100
AcDbCircle
 10
4544.121286305422
 20
1843.877493587612
 30
0.0
 40
83.34922039256998
100
AcDbArc
 50
330.9280552876956
 51
341.0719447122963
  0
ARC
  5
F1
330
1F
100
AcDbEntity
  8
0
 62
     5
420
      255
100
AcDbCircle
 10
4544.121286305422
 20
1843.877493587612
 30
0.0
 40
83.34922039256998
100
AcDbArc
 50
318.9280552876867
 51
329.0719447123122
  0
ARC
  5
F2
330
1F
100
AcDbEntity
  8
0
 62
     5
420
      255
100
AcDbCircle
 10
4544.121286305422
 20
1843.877493587612
 30
0.0
 40
83.34922039256998
100
AcDbArc
 50
306.9280552876887
 51
317.0719447122953
  0
ARC
  5
F3
330
1F
100
AcDbEntity
  8
0
 62
     5
420
      255
100
AcDbCircle
 10
4544.121286305422
 20
1843.877493587612
 30
0.0
 40
83.34922039256998
100
AcDbArc
 50
294.9280552877051
 51
305.0719447123165
  0
ARC
  5
F4
330
1F
100
AcDbEntity
  8
0
 62
     5
420
      255
100
AcDbCircle
 10
4544.121286305422
 20
1843.877493587612
 30
0.0
 40
83.34922039256998
100
AcDbArc
 50
282.9280552876985
 51
293.0719447123119
  0
ARC
  5
F5
330
1F
100
AcDbEntity
  8
0
 62
     5
420
      255
100
AcDbCircle
 10
4544.121286305422
 20
1843.877493587612
 30
0.0
 40
83.34922039256998
100
AcDbArc
 50
270.9280552877082
 51
281.0719447123055
  0
ARC
  5
F6
330
1F
100
AcDbEntity
  8
0
 62
     5
420
      255
100
AcDbCircle
 10
4544.121286305422
 20
1843.877493587612
 30
0.0
 40
83.34922039256998
100
AcDbArc
 50
258.9280552876944
 51
269.0719447122918
  0
ARC
  5
F7
330
1F
100
AcDbEntity
  8
0
 62
     5
420
      255
100
AcDbCircle
 10
4544.121286305422
 20
1843.877493587612
 30
0.0
 40
83.34922039256998
100
AcDbArc
 50
246.9280552876875
 51
257.0719447123009
  0
ARC
  5
F8
330
1F
100
AcDbEntity
  8
0
 62
     5
420
      255
100
AcDbCircle
 10
4544.121286305422
 20
1843.877493587612
 30
0.0
 40
83.34922039256998
100
AcDbArc
 50
222.9280552877046
 51
245.0719447122947
  0
ARC
  5
F9
330
1F
100
AcDbEntity
  8
0
 62
     5
420
      255
100
AcDbCircle
 10
4544.121286305422
 20
1843.877493587612
 30
0.0
 40
83.34922039256998
100
AcDbArc
 50
210.9280552876879
 51
221.0719447123085
  0
ARC
  5
FA
330
1F
100
AcDbEntity
  8
0
 62
     5
420
      255
100
AcDbCircle
 10
4544.121286305422
 20
1843.877493587612
 30
0.0
 40
83.34922039256998
100
AcDbArc
 50
198.9280552877032
 51
209.0719447123042
  0
ARC
  5
FB
330
1F
100
AcDbEntity
  8
0
 62
     5
420
      255
100
AcDbCircle
 10
4544.121286305422
 20
1843.877493587612
 30
0.0
 40
83.34922039256998
100
AcDbArc
 50
186.9280552877002
 51
197.0719447122997
  0
ARC
  5
FC
330
1F
100
AcDbEntity
  8
0
 62
     5
420
      255
100
AcDbCircle
 10
4544.121286305422
 20
1843.877493587612
 30
0.0
 40
83.34922039256998
100
AcDbArc
 50
174.9280552876933
 51
185.0719447123066
  0
ARC
  5
FD
330
1F
100
AcDbEntity
  8
0
 62
     5
420
      255
100
AcDbCircle
 10
4544.121286305422
 20
1843.877493587612
 30
0.0
 40
83.34922039256998
100
AcDbArc
 50
162.9280552877003
 51
173.0719447122996
  0
ARC
  5
FE
330
1F
100
AcDbEntity
  8
0
 62
     5
420
      255
100
AcDbCircle
 10
4544.121286305422
 20
1843.877493587612
 30
0.0
 40
83.34922039256998
100
AcDbArc
 50
150.9280552876962
 51
161.0719447122968
  0
ARC
  5
FF
330
1F
100
AcDbEntity
  8
0
 62
     5
420
      255
100
AcDbCircle
 10
4544.121286305422
 20
1843.877493587612
 30
0.0
 40
83.34922039256998
100
AcDbArc
 50
138.9280552876867
 51
149.0719447123122
  0
ARC
  5
100
330
1F
100
AcDbEntity
  8
0
 62
     5
420
      255
100
AcDbCircle
 10
4544.121286305422
 20
1843.877493587612
 30
0.0
 40
83.34922039256998
100
AcDbArc
 50
126.9280552876887
 51
137.0719447122953
  0
ARC
  5
101
330
1F
100
AcDbEntity
  8
0
 62
     5
420
      255
100
AcDbCircle
 10
4544.121286305422
 20
1843.877493587612
 30
0.0
 40
83.34922039256998
100
AcDbArc
 50
114.9280552877052
 51
125.0719447123164
  0
ARC
  5
102
330
1F
100
AcDbEntity
  8
0
 62
     5
420
      255
100
AcDbCircle
 10
4544.121286305422
 20
1843.877493587612
 30
0.0
 40
83.34922039256998
100
AcDbArc
 50
102.9280552876985
 51
113.0719447123119
  0
CIRCLE
  5
103
330
1F
100
AcDbEntity
  8
0
 62
     5
420
      255
100
AcDbCircle
 10
4359.161521232938
 20
1843.877493587745
 30
0.0
 40
66.58772826020268
  0
LINE
  5
104
330
1F
100
AcDbEntity
  8
0
 62
     5
420
      255
100
AcDbLine
 10
4279.474529108031
 20
1868.349892859821
 30
0.0
 11
4284.240873887458
 21
1866.801213561948
 31
0.0
  0
ARC
  5
105
330
1F
100
AcDbEntity
  8
0
 62
     5
420
      255
100
AcDbCircle
 10
-4359.161521232906
 20
1843.877493587619
 30
0.0
 40
78.34922039256303
210
0.0
220
0.0
230
-1.0
100
AcDbArc
 50
17.01271346591327
 51
18.98728653407917
  0
LINE
  5
106
330
1F
100
AcDbEntity
  8
0
 62
     5
420
      255
100
AcDbLine
 10
4285.07521977227
 20
1869.369066155945
 30
0.0
 11
4280.308874992841
 21
1870.917745453817
 31
0.0
  0
LINE
  5
107
330
1F
100
AcDbEntity
  8
0
 62
     5
420
      255
100
AcDbLine
 10
4276.127783165212
 20
1851.247254951057
 30
0.0
 11
4281.111960406835
 21
1850.723396813649
 31
0.0
  0
ARC
  5
108
330
1F
100
AcDbEntity
  8
0
 62
     5
420
      255
100
AcDbCircle
 10
-4359.161521232917
 20
1843.877493587641
 30
0.0
 40
78.3492203925734
210
0.0
220
0.0
230
-1.0
100
AcDbArc
 50
5.012713465896561
 51
6.987286534062056
  0
LINE
  5
109
330
1F
100
AcDbEntity
  8
0
 62
     5
420
      255
100
AcDbLine
 10
4281.394187257657
 20
1853.408605931143
 30
0.0
 11
4276.410010016035
 21
1853.932464068552
 31
0.0
  0
LINE
  5
10A
330
1F
100
AcDbEntity
  8
0
 62
     5
420
      255
100
AcDbLine
 10
4276.410010016035
 20
1833.822523106673
 30
0.0
 11
4281.394187257657
 21
1834.346381244083
 31
0.0
  0
ARC
  5
10B
330
1F
100
AcDbEntity
  8
0
 62
     5
420
      255
100
AcDbCircle
 10
-4359.161521232911
 20
1843.877493587584
 30
0.0
 40
78.34922039256702
210
0.0
220
0.0
230
-1.0
100
AcDbArc
 50
353.012713465938
 51
354.9872865341035
  0
LINE
  5
10C
330
1F
100
AcDbEntity
  8
0
 62
     5
420
      255
100
AcDbLine
 10
4281.111960406835
 20
1837.031590361577
 30
0.0
 11
4276.127783165212
 21
1836.507732224166
 31
0.0
  0
LINE
  5
10D
330
1F
100
AcDbEntity
  8
0
 62
     5
420
      255
100
AcDbLine
 10
4280.308874992841
 20
1816.837241721407
 30
0.0
 11
4285.07521977227
 21
1818.38592101928
 31
0.0
  0
ARC
  5
10E
330
1F
100
AcDbEntity
  8
0
 62
     5
420
      255
100
AcDbCircle
 10
-4359.161521232912
 20
1843.877493587605
 30
0.0
 40
78.3492203925684
210
0.0
220
0.0
230
-1.0
100
AcDbArc
 50
341.0127134659221
 51
342.9872865340882
  0
LINE
  5
10F
330
1F
100
AcDbEntity
  8
0
 62
     5
420
      255
100
AcDbLine
 10
4284.240873887458
 20
1820.953773613277
 30
0.0
 11
4279.474529108031
 21
1819.405094315404
 31
0.0
  0
LINE
  5
110
330
1F
100
AcDbEntity
  8
0
 62
     5
420
      255
100
AcDbLine
 10
4287.653978987317
 20
1801.033749096218
 30
0.0
 11
4291.99417916623
 21
1803.539564837851
 31
0.0
  0
ARC
  5
111
330
1F
100
AcDbEntity
  8
0
 62
     5
420
      255
100
AcDbCircle
 10
-4359.161521232885
 20
1843.877493587651
 30
0.0
 40
78.34922039256665
210
0.0
220
0.0
230
-1.0
100
AcDbArc
 50
329.0127134658833
 51
330.9872865340491
  0
LINE
  5
112
330
1F
100
AcDbEntity
  8
0
 62
     5
420
      255
100
AcDbLine
 10
4290.644179166229
 20
1805.877833428068
 30
0.0
 11
4286.303978987316
 21
1803.372017686436
 31
0.0
  0
LINE
  5
113
330
1F
100
AcDbEntity
  8
0
 62
     5
420
      255
100
AcDbLine
 10
4298.124305709182
 20
1787.1027336924
 30
0.0
 11
4301.848673713168
 21
1790.456169705643
 31
0.0
  0
ARC
  5
114
330
1F
100
AcDbEntity
  8
0
 62
     5
420
      255
100
AcDbCircle
 10
-4359.161521232896
 20
1843.877493587591
 30
0.0
 40
78.34922039254445
210
0.0
220
0.0
230
-1.0
100
AcDbArc
 50
317.012713465922
 51
318.9872865340873
  0
LINE
  5
115
330
1F
100
AcDbEntity
  8
0
 62
     5
420
      255
100
AcDbLine
 10
4300.042021076
 20
1792.462660734431
 30
0.0
 11
4296.317653072013
 21
1789.109224721187
 31
0.0
  0
LINE
  5
116
330
1F
100
AcDbEntity
  8
0
 62
     5
420
      255
100
AcDbLine
 10
4309.077905753676
 20
1777.240067912715
 30
0.0
 11
4312.023668829462
 21
1781.294562952221
 31
0.0
  0
ARC
  5
117
330
1F
100
AcDbEntity
  8
0
 62
     5
420
      255
100
AcDbCircle
 10
4359.161521232956
 20
1843.877493587627
 30
0.0
 40
78.34922039260871
100
AcDbArc
 50
233.012713465895
 51
234.9872865340606
  0
LINE
  5
118
330
1F
100
AcDbEntity
  8
0
 62
     5
420
      255
100
AcDbLine
 10
4314.208014714274
 20
1779.70754277103
 30
0.0
 11
4311.262251638487
 21
1775.653047731526
 31
0.0
  0
LINE
  5
119
330
1F
100
AcDbEntity
  8
0
 62
     5
420
      255
100
AcDbLine
 10
4324.027052759633
 20
1768.28328636808
 30
0.0
 11
4326.065466925469
 21
1772.861639544994
 31
0.0
  0
ARC
  5
11A
330
1F
100
AcDbEntity
  8
0
 62
     5
420
      255
100
AcDbCircle
 10
4359.161521232897
 20
1843.877493587573
 30
0.0
 40
78.34922039252882
100
AcDbArc
 50
245.0127134659135
 51
246.9872865340791
  0
LINE
  5
11B
330
1F
100
AcDbEntity
  8
0
 62
     5
420
      255
100
AcDbLine
 10
4328.532039661102
 20
1771.76345060869
 30
0.0
 11
4326.493625495268
 21
1767.185097431776
 31
0.0
  0
LINE
  5
11C
330
1F
100
AcDbEntity
  8
0
 62
     5
420
      255
100
AcDbLine
 10
4343.152743153739
 20
1762.068972854982
 30
0.0
 11
4344.194719929181
 21
1766.971088166099
 31
0.0
  0
ARC
  5
11D
330
1F
100
AcDbEntity
  8
0
 62
     5
420
      255
100
AcDbCircle
 10
-4359.161521232882
 20
1843.877493587627
 30
0.0
 40
78.34922039257893
210
0.0
220
0.0
230
-1.0
100
AcDbArc
 50
281.0127134658941
 51
282.9872865340604
  0
LINE
  5
11E
330
1F
100
AcDbEntity
  8
0
 62
     5
420
      255
100
AcDbLine
 10
4341.553721407198
 20
1767.532449731306
 30
0.0
 11
4340.511744631758
 21
1762.63033442019
 31
0.0
  0
LINE
  5
11F
330
1F
100
AcDbEntity
  8
0
 62
     5
420
      255
100
AcDbLine
 10
4360.51152123291
 20
1760.528273195042
 30
0.0
 11
4360.51152123291
 21
1765.539904678306
 31
0.0
  0
ARC
  5
120
330
1F
100
AcDbEntity
  8
0
 62
     5
420
      255
100
AcDbCircle
 10
-4359.161521232911
 20
1843.877493587598
 30
0.0
 40
78.34922039255551
210
0.0
220
0.0
230
-1.0
100
AcDbArc
 50
269.0127134659166
 51
270.9872865340834
  0
LINE
  5
121
330
1F
100
AcDbEntity
  8
0
 62
     5
420
      255
100
AcDbLine
 10
4357.81152123291
 20
1765.539904678306
 30
0.0
 11
4357.81152123291
 21
1760.528273195042
 31
0.0
  0
LINE
  5
122
330
1F
100
AcDbEntity
  8
0
 62
     5
420
      255
100
AcDbLine
 10
4377.811297834061
 20
1762.63033442019
 30
0.0
 11
4376.769321058622
 21
1767.532449731306
 31
0.0
  0
ARC
  5
123
330
1F
100
AcDbEntity
  8
0
 62
     5
420
      255
100
AcDbCircle
 10
-4359.161521232937
 20
1843.877493587637
 30
0.0
 40
78.34922039258895
210
0.0
220
0.0
230
-1.0
100
AcDbArc
 50
257.0127134659398
 51
258.987286534106
  0
LINE
  5
124
330
1F
100
AcDbEntity
  8
0
 62
     5
420
      255
100
AcDbLine
 10
4374.12832253664
 20
1766.971088166099
 30
0.0
 11
4375.170299312081
 21
1762.068972854982
 31
0.0
  0
LINE
  5
125
330
1F
100
AcDbEntity
  8
0
 62
     5
420
      255
100
AcDbLine
 10
4394.295989706186
 20
1768.28328636808
 30
0.0
 11
4392.257575540351
 21
1772.861639544994
 31
0.0
  0
ARC
  5
126
330
1F
100
AcDbEntity
  8
0
 62
     5
420
      255
100
AcDbCircle
 10
-4359.161521232922
 20
1843.877493587626
 30
0.0
 40
78.34922039257704
210
0.0
220
0.0
230
-1.0
100
AcDbArc
 50
245.0127134659293
 51
246.9872865340948
  0
LINE
  5
127
330
1F
100
AcDbEntity
  8
0
 62
     5
420
      255
100
AcDbLine
 10
4389.791002804716
 20
1771.76345060869
 30
0.0
 11
4391.82941697055
 21
1767.185097431776
 31
0.0
  0
LINE
  5
128
330
1F
100
AcDbEntity
  8
0
 62
     5
420
      255
100
AcDbLine
 10
4409.245136712145
 20
1777.240067912715
 30
0.0
 11
4406.299373636356
 21
1781.294562952219
 31
0.0
  0
ARC
  5
129
330
1F
100
AcDbEntity
  8
0
 62
     5
420
      255
100
AcDbCircle
 10
-4359.161521232925
 20
1843.877493587594
 30
0.0
 40
78.34922039254609
210
0.0
220
0.0
230
-1.0
100
AcDbArc
 50
233.0127134659187
 51
234.9872865340845
  0
LINE
  5
12A
330
1F
100
AcDbEntity
  8
0
 62
     5
420
      255
100
AcDbLine
 10
4404.115027751544
 20
1779.70754277103
 30
0.0
 11
4407.060790827332
 21
1775.653047731525
 31
0.0
  0
LINE
  5
12B
330
1F
100
AcDbEntity
  8
0
 62
     5
420
      255
100
AcDbLine
 10
4422.005389393808
 20
1789.109224721187
 30
0.0
 11
4418.281021389821
 21
1792.462660734431
 31
0.0
  0
ARC
  5
12C
330
1F
100
AcDbEntity
  8
0
 62
     5
420
      255
100
AcDbCircle
 10
-4359.161521232905
 20
1843.877493587578
 30
0.0
 40
78.3492203925517
210
0.0
220
0.0
230
-1.0
100
AcDbArc
 50
221.0127134658963
 51
222.9872865340624
  0
LINE
  5
12D
330
1F
100
AcDbEntity
  8
0
 62
     5
420
      255
100
AcDbLine
 10
4416.474368752653
 20
1790.456169705642
 30
0.0
 11
4420.198736756639
 21
1787.102733692399
 31
0.0
  0
LINE
  5
12E
330
1F
100
AcDbEntity
  8
0
 62
     5
420
      255
100
AcDbLine
 10
4432.019063478502
 20
1803.372017686436
 30
0.0
 11
4427.678863299592
 21
1805.877833428067
 31
0.0
  0
ARC
  5
12F
330
1F
100
AcDbEntity
  8
0
 62
     5
420
      255
100
AcDbCircle
 10
-4359.16152123295
 20
1843.877493587642
 30
0.0
 40
78.34922039255119
210
0.0
220
0.0
230
-1.0
100
AcDbArc
 50
209.0127134659508
 51
210.9872865341169
  0
LINE
  5
130
330
1F
100
AcDbEntity
  8
0
 62
     5
420
      255
100
AcDbLine
 10
4426.328863299591
 20
1803.53956483785
 30
0.0
 11
4430.669063478503
 21
1801.033749096218
 31
0.0
  0
LINE
  5
131
330
1F
100
AcDbEntity
  8
0
 62
     5
420
      255
100
AcDbLine
 10
4438.848513357791
 20
1819.405094315403
 30
0.0
 11
4434.082168578362
 21
1820.953773613275
 31
0.0
  0
ARC
  5
132
330
1F
100
AcDbEntity
  8
0
 62
     5
420
      255
100
AcDbCircle
 10
-4359.16152123294
 20
1843.877493587578
 30
0.0
 40
78.34922039253067
210
0.0
220
0.0
230
-1.0
100
AcDbArc
 50
197.0127134659009
 51
198.9872865340668
  0
LINE
  5
133
330
1F
100
AcDbEntity
  8
0
 62
     5
420
      255
100
AcDbLine
 10
4433.247822693551
 20
1818.385921019279
 30
0.0
 11
4438.014167472978
 21
1816.837241721406
 31
0.0
  0
LINE
  5
134
330
1F
100
AcDbEntity
  8
0
 62
     5
420
      255
100
AcDbLine
 10
4442.195259300608
 20
1836.507732224166
 30
0.0
 11
4437.211082058985
 21
1837.031590361576
 31
0.0
  0
ARC
  5
135
330
1F
100
AcDbEntity
  8
0
 62
     5
420
      255
100
AcDbCircle
 10
-4359.161521232889
 20
1843.877493587582
 30
0.0
 40
78.34922039258804
210
0.0
220
0.0
230
-1.0
100
AcDbArc
 50
185.0127134658938
 51
186.9872865340597
  0
LINE
  5
136
330
1F
100
AcDbEntity
  8
0
 62
     5
420
      255
100
AcDbLine
 10
4436.928855208163
 20
1834.346381244081
 30
0.0
 11
4441.913032449786
 21
1833.822523106672
 31
0.0
  0
LINE
  5
137
330
1F
100
AcDbEntity
  8
0
 62
     5
420
      255
100
AcDbLine
 10
4441.913032449786
 20
1853.932464068552
 30
0.0
 11
4436.928855208163
 21
1853.408605931142
 31
0.0
  0
ARC
  5
138
330
1F
100
AcDbEntity
  8
0
 62
     5
420
      255
100
AcDbCircle
 10
-4359.161521232916
 20
1843.877493587641
 30
0.0
 40
78.34922039256067
210
0.0
220
0.0
230
-1.0
100
AcDbArc
 50
173.0127134659379
 51
174.9872865341036
  0
LINE
  5
139
330
1F
100
AcDbEntity
  8
0
 62
     5
420
      255
100
AcDbLine
 10
4437.211082058985
 20
1850.723396813648
 30
0.0
 11
4442.195259300608
 21
1851.247254951056
 31
0.0
  0
LINE
  5
13A
330
1F
100
AcDbEntity
  8
0
 62
     5
420
      255
100
AcDbLine
 10
4438.014167472978
 20
1870.917745453817
 30
0.0
 11
4433.247822693551
 21
1869.369066155945
 31
0.0
  0
ARC
  5
13B
330
1F
100
AcDbEntity
  8
0
 62
     5
420
      255
100
AcDbCircle
 10
-4359.161521232913
 20
1843.877493587566
 30
0.0
 40
78.34922039258205
210
0.0
220
0.0
230
-1.0
100
AcDbArc
 50
161.0127134658842
 51
162.9872865340498
  0
LINE
  5
13C
330
1F
100
AcDbEntity
  8
0
 62
     5
420
      255
100
AcDbLine
 10
4434.082168578365
 20
1866.801213561948
 30
0.0
 11
4438.848513357791
 21
1868.34989285982
 31
0.0
  0
LINE
  5
13D
330
1F
100
AcDbEntity
  8
0
 62
     5
420
      255
100
AcDbLine
 10
4430.669063478503
 20
1886.721238079006
 30
0.0
 11
4426.328863299591
 21
1884.215422337375
 31
0.0
  0
ARC
  5
13E
330
1F
100
AcDbEntity
  8
0
 62
     5
420
      255
100
AcDbCircle
 10
-4359.161521232882
 20
1843.877493587577
 30
0.0
 40
78.34922039261262
210
0.0
220
0.0
230
-1.0
100
AcDbArc
 50
149.012713465905
 51
150.9872865340709
  0
LINE
  5
13F
330
1F
100
AcDbEntity
  8
0
 62
     5
420
      255
100
AcDbLine
 10
4427.678863299592
 20
1881.877153747156
 30
0.0
 11
4432.019063478504
 21
1884.382969488788
 31
0.0
  0
LINE
  5
140
330
1F
100
AcDbEntity
  8
0
 62
     5
420
      255
100
AcDbLine
 10
4420.198736756639
 20
1900.652253482824
 30
0.0
 11
4416.474368752653
 21
1897.298817469582
 31
0.0
  0
ARC
  5
141
330
1F
100
AcDbEntity
  8
0
 62
     5
420
      255
100
AcDbCircle
 10
-4359.161521232898
 20
1843.877493587612
 30
0.0
 40
78.34922039258026
210
0.0
220
0.0
230
-1.0
100
AcDbArc
 50
137.0127134659236
 51
138.987286534089
  0
LINE
  5
142
330
1F
100
AcDbEntity
  8
0
 62
     5
420
      255
100
AcDbLine
 10
4418.281021389822
 20
1895.292326440793
 30
0.0
 11
4422.005389393808
 21
1898.645762454036
 31
0.0
  0
LINE
  5
143
330
1F
100
AcDbEntity
  8
0
 62
     5
420
      255
100
AcDbLine
 10
4407.060790827332
 20
1912.101939443699
 30
0.0
 11
4404.115027751545
 21
1908.047444404195
 31
0.0
  0
ARC
  5
144
330
1F
100
AcDbEntity
  8
0
 62
     5
420
      255
100
AcDbCircle
 10
-4359.161521232888
 20
1843.877493587623
 30
0.0
 40
78.34922039257484
210
0.0
220
0.0
230
-1.0
100
AcDbArc
 50
125.012713465935
 51
126.9872865341012
  0
LINE
  5
145
330
1F
100
AcDbEntity
  8
0
 62
     5
420
      255
100
AcDbLine
 10
4406.299373636358
 20
1906.460424223004
 30
0.0
 11
4409.245136712145
 21
1910.514919262509
 31
0.0
  0
LINE
  5
146
330
1F
100
AcDbEntity
  8
0
 62
     5
420
      255
100
AcDbLine
 10
4391.829416970552
 20
1920.569889743449
 30
0.0
 11
4389.791002804717
 21
1915.991536566534
 31
0.0
  0
ARC
  5
147
330
1F
100
AcDbEntity
  8
0
 62
     5
420
      255
100
AcDbCircle
 10
-4359.161521232909
 20
1843.877493587623
 30
0.0
 40
78.34922039256053
210
0.0
220
0.0
230
-1.0
100
AcDbArc
 50
113.0127134659221
 51
114.9872865340888
  0
LINE
  5
148
330
1F
100
AcDbEntity
  8
0
 62
     5
420
      255
100
AcDbLine
 10
4392.257575540352
 20
1914.893347630229
 30
0.0
 11
4394.295989706186
 21
1919.471700807144
 31
0.0
  0
LINE
  5
149
330
1F
100
AcDbEntity
  8
0
 62
     5
420
      255
100
AcDbLine
 10
4375.170299312081
 20
1925.686014320241
 30
0.0
 11
4374.12832253664
 21
1920.783899009126
 31
0.0
  0
ARC
  5
14A
330
1F
100
AcDbEntity
  8
0
 62
     5
420
      255
100
AcDbCircle
 10
-4359.161521232884
 20
1843.877493587586
 30
0.0
 40
78.34922039260081
210
0.0
220
0.0
230
-1.0
100
AcDbArc
 50
101.0127134659317
 51
102.9872865340978
  0
LINE
  5
14B
330
1F
100
AcDbEntity
  8
0
 62
     5
420
      255
100
AcDbLine
 10
4376.769321058622
 20
1920.222537443917
 30
0.0
 11
4377.811297834063
 21
1925.124652755034
 31
0.0
  0
ARC
  5
14C
330
1F
100
AcDbEntity
  8
0
 62
     5
420
      255
100
AcDbCircle
 10
-4359.161521232913
 20
1843.87749358761
 30
0.0
 40
83.34922039257275
210
0.0
220
0.0
230
-1.0
100
AcDbArc
 50
78.92805528769617
 51
89.07194471230058
  0
LINE
  5
14D
330
1F
100
AcDbEntity
  8
0
 62
     5
420
      255
100
AcDbLine
 10
4357.81152123291
 20
1927.215780347356
 30
0.0
 11
4357.81152123291
 21
1922.215082496919
 31
0.0
  0
LINE
  5
14E
330
1F
100
AcDbEntity
  8
0
 62
     5
420
      255
100
AcDbLine
 10
4357.81152123291
 20
1922.215082496919
 30
0.0
 11
4360.51152123291
 21
1922.215082496919
 31
0.0
  0
LINE
  5
14F
330
1F
100
AcDbEntity
  8
0
 62
     5
420
      255
100
AcDbLine
 10
4360.51152123291
 20
1922.215082496919
 30
0.0
 11
4360.51152123291
 21
1927.215780347356
 31
0.0
  0
ARC
  5
150
330
1F
100
AcDbEntity
  8
0
 62
     5
420
      255
100
AcDbCircle
 10
-4359.161521232908
 20
1843.877493587612
 30
0.0
 40
83.34922039257029
210
0.0
220
0.0
230
-1.0
100
AcDbArc
 50
90.92805528769946
 51
101.0719447123035
  0
POLYLINE
  5
151
330
1F
100
AcDbEntity
  8
0
 62
     5
420
      255
100
AcDb2dPolyline
 66
     1
 10
0.0
 20
0.0
 30
0.0
  0
VERTEX
  5
152
330
151
100
AcDbEntity
  8
0
 62
     5
420
      255
100
AcDbVertex
100
AcDb2dVertex
 10
4286.303978987316
 20
1884.382969488788
 30
0.0
  0
VERTEX
  5
153
330
151
100
AcDbEntity
  8
0
 62
     5
420
      255
100
AcDbVertex
100
AcDb2dVertex
 10
4290.644179166229
 20
1881.877153747157
 30
0.0
  0
VERTEX
  5
154
330
151
100
AcDbEntity
  8
0
 62
     5
420
      255
100
AcDbVertex
100
AcDb2dVertex
 10
4291.99417916623
 20
1884.215422337375
 30
0.0
  0
VERTEX
  5
155
330
151
100
AcDbEntity
  8
0
 62
     5
420
      255
100
AcDbVertex
100
AcDb2dVertex
 10
4287.653978987317
 20
1886.721238079007
 30
0.0
  0
SEQEND
  5
156
330
151
100
AcDbEntity
  8
0
 62
     5
420
      255
  0
POLYLINE
  5
157
330
1F
100
AcDbEntity
  8
0
 62
     5
420
      255
100
AcDb2dPolyline
 66
     1
 10
0.0
 20
0.0
 30
0.0
  0
VERTEX
  5
158
330
157
100
AcDbEntity
  8
0
 62
     5
420
      255
100
AcDbVertex
100
AcDb2dVertex
 10
4296.317653072013
 20
1898.645762454036
 30
0.0
  0
VERTEX
  5
159
330
157
100
AcDbEntity
  8
0
 62
     5
420
      255
100
AcDbVertex
100
AcDb2dVertex
 10
4300.042021076
 20
1895.292326440793
 30
0.0
  0
VERTEX
  5
15A
330
157
100
AcDbEntity
  8
0
 62
     5
420
      255
100
AcDbVertex
100
AcDb2dVertex
 10
4301.848673713167
 20
1897.298817469582
 30
0.0
  0
VERTEX
  5
15B
330
157
100
AcDbEntity
  8
0
 62
     5
420
      255
100
AcDbVertex
100
AcDb2dVertex
 10
4298.124305709182
 20
1900.652253482824
 30
0.0
  0
SEQEND
  5
15C
330
157
100
AcDbEntity
  8
0
 62
     5
420
      255
  0
POLYLINE
  5
15D
330
1F
100
AcDbEntity
  8
0
 62
     5
420
      255
100
AcDb2dPolyline
 66
     1
 10
0.0
 20
0.0
 30
0.0
  0
VERTEX
  5
15E
330
15D
100
AcDbEntity
  8
0
 62
     5
420
      255
100
AcDbVertex
100
AcDb2dVertex
 10
4309.077905753676
 20
1910.51491926251
 30
0.0
  0
VERTEX
  5
15F
330
15D
100
AcDbEntity
  8
0
 62
     5
420
      255
100
AcDbVertex
100
AcDb2dVertex
 10
4312.023668829462
 20
1906.460424223004
 30
0.0
  0
VERTEX
  5
160
330
15D
100
AcDbEntity
  8
0
 62
     5
420
      255
100
AcDbVertex
100
AcDb2dVertex
 10
4314.208014714276
 20
1908.047444404194
 30
0.0
  0
VERTEX
  5
161
330
15D
100
AcDbEntity
  8
0
 62
     5
420
      255
100
AcDbVertex
100
AcDb2dVertex
 10
4311.262251638488
 20
1912.101939443699
 30
0.0
  0
SEQEND
  5
162
330
15D
100
AcDbEntity
  8
0
 62
     5
420
      255
  0
POLYLINE
  5
163
330
1F
100
AcDbEntity
  8
0
 62
     5
420
      255
100
AcDb2dPolyline
 66
     1
 10
0.0
 20
0.0
 30
0.0
  0
VERTEX
  5
164
330
163
100
AcDbEntity
  8
0
 62
     5
420
      255
100
AcDbVertex
100
AcDb2dVertex
 10
4324.027052759634
 20
1919.471700807144
 30
0.0
  0
VERTEX
  5
165
330
163
100
AcDbEntity
  8
0
 62
     5
420
      255
100
AcDbVertex
100
AcDb2dVertex
 10
4326.065466925469
 20
1914.89334763023
 30
0.0
  0
VERTEX
  5
166
330
163
100
AcDbEntity
  8
0
 62
     5
420
      255
100
AcDbVertex
100
AcDb2dVertex
 10
4328.532039661102
 20
1915.991536566535
 30
0.0
  0
VERTEX
  5
167
330
163
100
AcDbEntity
  8
0
 62
     5
420
      255
100
AcDbVertex
100
AcDb2dVertex
 10
4326.493625495269
 20
1920.569889743449
 30
0.0
  0
SEQEND
  5
168
330
163
100
AcDbEntity
  8
0
 62
     5
420
      255
  0
POLYLINE
  5
169
330
1F
100
AcDbEntity
  8
0
 62
     5
420
      255
100
AcDb2dPolyline
 66
     1
 10
0.0
 20
0.0
 30
0.0
  0
VERTEX
  5
16A
330
169
100
AcDbEntity
  8
0
 62
     5
420
      255
100
AcDbVertex
100
AcDb2dVertex
 10
4340.511744631758
 20
1925.124652755034
 30
0.0
  0
VERTEX
  5
16B
330
169
100
AcDbEntity
  8
0
 62
     5
420
      255
100
AcDbVertex
100
AcDb2dVertex
 10
4341.553721407199
 20
1920.222537443917
 30
0.0
  0
VERTEX
  5
16C
330
169
100
AcDbEntity
  8
0
 62
     5
420
      255
100
AcDbVertex
100
AcDb2dVertex
 10
4344.194719929181
 20
1920.783899009125
 30
0.0
  0
VERTEX
  5
16D
330
169
100
AcDbEntity
  8
0
 62
     5
420
      255
100
AcDbVertex
100
AcDb2dVertex
 10
4343.152743153739
 20
1925.686014320241
 30
0.0
  0
SEQEND
  5
16E
330
169
100
AcDbEntity
  8
0
 62
     5
420
      255
  0
ARC
  5
16F
330
1F
100
AcDbEntity
  8
0
 62
     5
420
      255
100
AcDbCircle
 10
4359.161521232911
 20
1843.877493587612
 30
0.0
 40
78.34922039256998
100
AcDbArc
 50
89.01271346591946
 51
89.0719447122918
  0
ARC
  5
170
330
1F
100
AcDbEntity
  8
0
 62
     5
420
      255
100
AcDbCircle
 10
4359.161521232911
 20
1843.877493587612
 30
0.0
 40
78.34922039256998
100
AcDbArc
 50
90.92805528770819
 51
90.98728653408054
  0
ARC
  5
171
330
1F
100
AcDbEntity
  8
0
 62
     5
420
      255
100
AcDbCircle
 10
4359.161521232911
 20
1843.877493587612
 30
0.0
 40
83.34922039256998
100
AcDbArc
 50
66.92805528768747
 51
77.0719447123009
  0
ARC
  5
172
330
1F
100
AcDbEntity
  8
0
 62
     5
420
      255
100
AcDbCircle
 10
4359.161521232911
 20
1843.877493587612
 30
0.0
 40
83.34922039256998
100
AcDbArc
 50
54.92805528768427
 51
65.07194471229549
  0
ARC
  5
173
330
1F
100
AcDbEntity
  8
0
 62
     5
420
      255
100
AcDbCircle
 10
4359.161521232911
 20
1843.877493587612
 30
0.0
 40
83.34922039256998
100
AcDbArc
 50
42.9280552877046
 51
53.07194471231133
  0
ARC
  5
174
330
1F
100
AcDbEntity
  8
0
 62
     5
420
      255
100
AcDbCircle
 10
4359.161521232911
 20
1843.877493587612
 30
0.0
 40
83.34922039256998
100
AcDbArc
 50
30.92805528768787
 51
41.07194471230853
  0
ARC
  5
175
330
1F
100
AcDbEntity
  8
0
 62
     5
420
      255
100
AcDbCircle
 10
4359.161521232911
 20
1843.877493587612
 30
0.0
 40
83.34922039256998
100
AcDbArc
 50
18.92805528770318
 51
29.0719447123041
  0
ARC
  5
176
330
1F
100
AcDbEntity
  8
0
 62
     5
420
      255
100
AcDbCircle
 10
4359.161521232911
 20
1843.877493587612
 30
0.0
 40
83.34922039256998
100
AcDbArc
 50
6.928055287700379
 51
17.07194471229992
  0
ARC
  5
177
330
1F
100
AcDbEntity
  8
0
 62
     5
420
      255
100
AcDbCircle
 10
4359.161521232911
 20
1843.877493587612
 30
0.0
 40
83.34922039256998
100
AcDbArc
 50
354.9280552876933
 51
5.071944712306575
  0
ARC
  5
178
330
1F
100
AcDbEntity
  8
0
 62
     5
420
      255
100
AcDbCircle
 10
4359.161521232911
 20
1843.877493587612
 30
0.0
 40
83.34922039256998
100
AcDbArc
 50
342.9280552876997
 51
353.0719447122995
  0
ARC
  5
179
330
1F
100
AcDbEntity
  8
0
 62
     5
420
      255
100
AcDbCircle
 10
4359.161521232911
 20
1843.877493587612
 30
0.0
 40
83.34922039256998
100
AcDbArc
 50
330.9280552876956
 51
341.0719447122963
  0
ARC
  5
17A
330
1F
100
AcDbEntity
  8
0
 62
     5
420
      255
100
AcDbCircle
 10
4359.161521232911
 20
1843.877493587612
 30
0.0
 40
83.34922039256998
100
AcDbArc
 50
318.9280552876915
 51
329.0719447123121
  0
ARC
  5
17B
330
1F
100
AcDbEntity
  8
0
 62
     5
420
      255
100
AcDbCircle
 10
4359.161521232911
 20
1843.877493587612
 30
0.0
 40
83.34922039256998
100
AcDbArc
 50
306.9280552876887
 51
317.0719447122953
  0
ARC
  5
17C
330
1F
100
AcDbEntity
  8
0
 62
     5
420
      255
100
AcDbCircle
 10
4359.161521232911
 20
1843.877493587612
 30
0.0
 40
83.34922039256998
100
AcDbArc
 50
294.9280552877051
 51
305.0719447123165
  0
ARC
  5
17D
330
1F
100
AcDbEntity
  8
0
 62
     5
420
      255
100
AcDbCircle
 10
4359.161521232911
 20
1843.877493587612
 30
0.0
 40
83.34922039256998
100
AcDbArc
 50
282.9280552876985
 51
293.0719447123119
  0
ARC
  5
17E
330
1F
100
AcDbEntity
  8
0
 62
     5
420
      255
100
AcDbCircle
 10
4359.161521232911
 20
1843.877493587612
 30
0.0
 40
83.34922039256998
100
AcDbArc
 50
270.9280552877082
 51
281.0719447123055
  0
ARC
  5
17F
330
1F
100
AcDbEntity
  8
0
 62
     5
420
      255
100
AcDbCircle
 10
4359.161521232911
 20
1843.877493587612
 30
0.0
 40
83.34922039256998
100
AcDbArc
 50
258.9280552876944
 51
269.0719447122918
  0
ARC
  5
180
330
1F
100
AcDbEntity
  8
0
 62
     5
420
      255
100
AcDbCircle
 10
4359.161521232911
 20
1843.877493587612
 30
0.0
 40
83.34922039256998
100
AcDbArc
 50
246.9280552876875
 51
257.0719447123009
  0
ARC
  5
181
330
1F
100
AcDbEntity
  8
0
 62
     5
420
      255
100
AcDbCircle
 10
4359.161521232911
 20
1843.877493587612
 30
0.0
 40
83.34922039256998
100
AcDbArc
 50
222.9280552877046
 51
245.0719447122947
  0
ARC
  5
182
330
1F
100
AcDbEntity
  8
0
 62
     5
420
      255
100
AcDbCircle
 10
4359.161521232911
 20
1843.877493587612
 30
0.0
 40
83.34922039256998
100
AcDbArc
 50
210.9280552876879
 51
221.0719447123085
  0
ARC
  5
183
330
1F
100
AcDbEntity
  8
0
 62
     5
420
      255
100
AcDbCircle
 10
4359.161521232911
 20
1843.877493587612
 30
0.0
 40
83.34922039256998
100
AcDbArc
 50
198.9280552877032
 51
209.0719447123042
  0
ARC
  5
184
330
1F
100
AcDbEntity
  8
0
 62
     5
420
      255
100
AcDbCircle
 10
4359.161521232911
 20
1843.877493587612
 30
0.0
 40
83.34922039256998
100
AcDbArc
 50
186.9280552877002
 51
197.0719447122997
  0
ARC
  5
185
330
1F
100
AcDbEntity
  8
0
 62
     5
420
      255
100
AcDbCircle
 10
4359.161521232911
 20
1843.877493587612
 30
0.0
 40
83.34922039256998
100
AcDbArc
 50
174.9280552876933
 51
185.0719447123066
  0
ARC
  5
186
330
1F
100
AcDbEntity
  8
0
 62
     5
420
      255
100
AcDbCircle
 10
4359.161521232911
 20
1843.877493587612
 30
0.0
 40
83.34922039256998
100
AcDbArc
 50
162.9280552877003
 51
173.0719447122996
  0
ARC
  5
187
330
1F
100
AcDbEntity
  8
0
 62
     5
420
      255
100
AcDbCircle
 10
4359.161521232911
 20
1843.877493587612
 30
0.0
 40
83.34922039256998
100
AcDbArc
 50
150.9280552876962
 51
161.0719447122968
  0
ARC
  5
188
330
1F
100
AcDbEntity
  8
0
 62
     5
420
      255
100
AcDbCircle
 10
4359.161521232911
 20
1843.877493587612
 30
0.0
 40
83.34922039256998
100
AcDbArc
 50
138.9280552876915
 51
149.0719447123122
  0
ARC
  5
189
330
1F
100
AcDbEntity
  8
0
 62
     5
420
      255
100
AcDbCircle
 10
4359.161521232911
 20
1843.877493587612
 30
0.0
 40
83.34922039256998
100
AcDbArc
 50
126.9280552876887
 51
137.0719447122953
  0
ARC
  5
18A
330
1F
100
AcDbEntity
  8
0
 62
     5
420
      255
100
AcDbCircle
 10
4359.161521232911
 20
1843.877493587612
 30
0.0
 40
83.34922039256998
100
AcDbArc
 50
114.9280552877052
 51
125.0719447123164
  0
ARC
  5
18B
330
1F
100
AcDbEntity
  8
0
 62
     5
420
      255
100
AcDbCircle
 10
4359.161521232911
 20
1843.877493587612
 30
0.0
 40
83.34922039256998
100
AcDbArc
 50
102.9280552876985
 51
113.0719447123119
  0
SPLINE
  5
18C
330
1F
100
AcDbEntity
  8
0
 62
     5
420
      255
100
AcDbSpline
210
0.0
220
0.0
230
1.0
 70
    15
 71
     2
 72
    48
 73
    45
 74
     0
 42
0.000000001
 43
0.0000000001
 40
0.0
 40
0.0
 40
0.0
 40
1.0
 40
1.0
 40
2.0
 40
2.0
 40
3.155100623312941
 40
3.155100623312941
 40
4.093445578313288
 40
4.093445578313288
 40
5.031790533313637
 40
5.031790533313637
 40
6.186824071470883
 40
6.186824071470883
 40
7.186824071470883
 40
7.186824071470883
 40
8.186824071470886
 40
8.186824071470886
 40
9.186824071470882
 40
9.186824071470882
 40
10.18682407147088
 40
10.18682407147088
 40
11.18682407147088
 40
11.18682407147088
 40
12.18682407147088
 40
12.18682407147088
 40
13.18682407147088
 40
13.18682407147088
 40
14.52193311721429
 40
14.52193311721429
 40
15.56260823733104
 40
15.56260823733104
 40
16.6032833574478
 40
16.6032833574478
 40
17.93824725589535
 40
17.93824725589535
 40
18.93824725589535
 40
18.93824725589535
 40
19.93824725589535
 40
19.93824725589535
 40
20.93824725589536
 40
20.93824725589536
 40
21.93824725589536
 40
21.93824725589536
 40
22.93824725589535
 40
22.93824725589535
 40
22.93824725589535
 10
4300.966698119953
 20
2246.148861178312
 30
0.0
 41
1.0
 10
4305.167602951749
 20
2246.148861178312
 30
0.0
 41
1.0
 10
4309.368507783547
 20
2246.148861178312
 30
0.0
 41
1.0
 10
4309.368507783547
 20
2228.166293267224
 30
0.0
 41
1.0
 10
4309.368507783547
 20
2210.183725356134
 30
0.0
 41
1.0
 10
4309.368507783546
 20
2202.689487632364
 30
0.0
 41
0.83780262662879
 10
4316.224503236266
 20
2199.663115974313
 30
0.0
 41
1.0
 10
4327.037701563633
 20
2194.88995689384
 30
0.0
 41
0.8919427564735075
 10
4327.037479781288
 20
2186.814405444826
 30
0.0
 41
1.0
 10
4327.037257998943
 20
2178.73885399581
 30
0.0
 41
0.8919427564735075
 10
4316.223797469954
 20
2173.964712376382
 30
0.0
 41
1.0
 10
4309.368507783521
 20
2170.938102743161
 30
0.0
 41
0.8378209395067706
 10
4309.368507783534
 20
2163.444414561972
 30
0.0
 41
1.0
 10
4309.368507783547
 20
2061.237536460921
 30
0.0
 41
1.0
 10
4309.368507783547
 20
1959.030658359871
 30
0.0
 41
1.0
 10
4305.167602951749
 20
1958.839759769095
 30
0.0
 41
1.0
 10
4300.966698119953
 20
1958.648861178318
 30
0.0
 41
1.0
 10
4300.966698119953
 20
1989.417314427467
 30
0.0
 41
1.0
 10
4300.966698119953
 20
2020.185767676617
 30
0.0
 41
1.0
 10
4302.432948119953
 20
2020.185767676617
 30
0.0
 41
1.0
 10
4303.899198119954
 20
2020.185767676617
 30
0.0
 41
1.0
 10
4303.899198119954
 20
2021.335767676617
 30
0.0
 41
1.0
 10
4303.899198119954
 20
2022.485767676617
 30
0.0
 41
1.0
 10
4302.432948119953
 20
2022.485767676617
 30
0.0
 41
1.0
 10
4300.966698119953
 20
2022.485767676617
 30
0.0
 41
1.0
 10
4300.966698119953
 20
2095.844624892822
 30
0.0
 41
1.0
 10
4300.966698119953
 20
2169.203482109028
 30
0.0
 41
1.0
 10
4300.966698119954
 20
2178.268718693247
 30
0.0
 41
0.7853379276294377
 10
4309.781317926766
 20
2180.385554064534
 30
0.0
 41
1.0
 10
4318.765605392399
 20
2182.543135209266
 30
0.0
 41
0.8676514033498923
 10
4318.765066411798
 20
2186.811676429532
 30
0.0
 41
1.0
 10
4318.764527431198
 20
2191.080217649797
 30
0.0
 41
0.8676514033498923
 10
4309.779694907554
 20
2193.239309074499
 30
0.0
 41
1.0
 10
4300.966698119953
 20
2195.357107680089
 30
0.0
 41
0.7853828535345323
 10
4300.966698119953
 20
2204.420991136539
 30
0.0
 41
1.0
 10
4300.966698119952
 20
2206.981622935306
 30
0.0
 41
1.0
 10
4300.966698119952
 20
2209.54225473407
 30
0.0
 41
1.0
 10
4302.432948119953
 20
2209.54225473407
 30
0.0
 41
1.0
 10
4303.899198119954
 20
2209.54225473407
 30
0.0
 41
1.0
 10
4303.899198119954
 20
2210.69225473407
 30
0.0
 41
1.0
 10
4303.899198119954
 20
2211.842254734071
 30
0.0
 41
1.0
 10
4302.432948119953
 20
2211.842254734071
 30
0.0
 41
1.0
 10
4300.966698119953
 20
2211.842254734071
 30
0.0
 41
1.0
 10
4300.966698119952
 20
2228.995557956192
 30
0.0
 41
1.0
 10
4300.966698119953
 20
2246.148861178312
 30
0.0
 41
1.0
  0
SPLINE
  5
18D
330
1F
100
AcDbEntity
  8
0
 62
     5
420
      255
100
AcDbSpline
210
0.0
220
0.0
230
1.0
 70
    15
 71
     2
 72
    48
 73
    45
 74
     0
 42
0.000000001
 43
0.0000000001
 40
0.0
 40
0.0
 40
0.0
 40
1.0
 40
1.0
 40
2.0
 40
2.0
 40
3.155100623312943
 40
3.155100623312943
 40
4.093445578313061
 40
4.093445578313061
 40
5.031790533313174
 40
5.031790533313174
 40
6.186824071467428
 40
6.186824071467428
 40
7.186824071467428
 40
7.186824071467428
 40
8.186824071467427
 40
8.186824071467427
 40
9.186824071467427
 40
9.186824071467427
 40
10.18682407146743
 40
10.18682407146743
 40
11.18682407146743
 40
11.18682407146743
 40
12.18682407146743
 40
12.18682407146743
 40
13.18682407146743
 40
13.18682407146743
 40
14.52193311721083
 40
14.52193311721083
 40
15.56260823732901
 40
15.56260823732901
 40
16.6032833574472
 40
16.6032833574472
 40
17.93824725589476
 40
17.93824725589476
 40
18.93824725589476
 40
18.93824725589476
 40
19.93824725589476
 40
19.93824725589476
 40
20.93824725589476
 40
20.93824725589476
 40
21.93824725589476
 40
21.93824725589476
 40
22.93824725589476
 40
22.93824725589476
 40
22.93824725589476
 10
4324.956467182521
 20
2246.148861178312
 30
0.0
 41
1.0
 10
4329.157372014317
 20
2246.148861178312
 30
0.0
 41
1.0
 10
4333.358276846112
 20
2246.148861178312
 30
0.0
 41
1.0
 10
4333.358276846112
 20
2227.22890970794
 30
0.0
 41
1.0
 10
4333.358276846108
 20
2208.308958237564
 30
0.0
 41
1.0
 10
4333.358276846108
 20
2200.814720513794
 30
0.0
 41
0.83780262662879
 10
4340.214272298833
 20
2197.788348855746
 30
0.0
 41
1.0
 10
4351.027470626192
 20
2193.015189775279
 30
0.0
 41
0.8919427564735599
 10
4351.027248843855
 20
2184.939638326265
 30
0.0
 41
1.0
 10
4351.027027061517
 20
2176.864086877253
 30
0.0
 41
0.8919427564735599
 10
4340.213566532536
 20
2172.089945257817
 30
0.0
 41
1.0
 10
4333.358276846115
 20
2169.063335624616
 30
0.0
 41
0.8378209395075876
 10
4333.358276846112
 20
2161.569647443454
 30
0.0
 41
1.0
 10
4333.358276846112
 20
2061.21467829398
 30
0.0
 41
1.0
 10
4333.358276846112
 20
1960.859709144504
 30
0.0
 41
1.0
 10
4329.157372014317
 20
1960.668810553728
 30
0.0
 41
1.0
 10
4324.956467182521
 20
1960.477911962951
 30
0.0
 41
1.0
 10
4324.956467182521
 20
1990.331839819784
 30
0.0
 41
1.0
 10
4324.956467182521
 20
2020.185767676617
 30
0.0
 41
1.0
 10
4326.42271718252
 20
2020.185767676617
 30
0.0
 41
1.0
 10
4327.888967182521
 20
2020.185767676617
 30
0.0
 41
1.0
 10
4327.888967182521
 20
2021.335767676617
 30
0.0
 41
1.0
 10
4327.888967182521
 20
2022.485767676617
 30
0.0
 41
1.0
 10
4326.42271718252
 20
2022.485767676617
 30
0.0
 41
1.0
 10
4324.956467182521
 20
2022.485767676617
 30
0.0
 41
1.0
 10
4324.956467182521
 20
2094.907241333539
 30
0.0
 41
1.0
 10
4324.956467182521
 20
2167.32871499046
 30
0.0
 41
1.0
 10
4324.956467182519
 20
2176.393951574677
 30
0.0
 41
0.7853379276294377
 10
4333.771086989333
 20
2178.510786945964
 30
0.0
 41
1.0
 10
4342.755374454952
 20
2180.668368090679
 30
0.0
 41
0.8676514033495376
 10
4342.754835474367
 20
2184.936909310953
 30
0.0
 41
1.0
 10
4342.754296493779
 20
2189.205450531226
 30
0.0
 41
0.8676514033495376
 10
4333.769463970122
 20
2191.364541955931
 30
0.0
 41
1.0
 10
4324.956467182516
 20
2193.482340561517
 30
0.0
 41
0.7853828535345323
 10
4324.956467182516
 20
2202.546224017967
 30
0.0
 41
1.0
 10
4324.956467182521
 20
2206.044239376021
 30
0.0
 41
1.0
 10
4324.956467182519
 20
2209.54225473407
 30
0.0
 41
1.0
 10
4326.42271718252
 20
2209.54225473407
 30
0.0
 41
1.0
 10
4327.888967182521
 20
2209.54225473407
 30
0.0
 41
1.0
 10
4327.888967182521
 20
2210.69225473407
 30
0.0
 41
1.0
 10
4327.888967182521
 20
2211.842254734071
 30
0.0
 41
1.0
 10
4326.42271718252
 20
2211.842254734071
 30
0.0
 41
1.0
 10
4324.956467182521
 20
2211.842254734071
 30
0.0
 41
1.0
 10
4324.956467182521
 20
2228.995557956192
 30
0.0
 41
1.0
 10
4324.956467182521
 20
2246.148861178312
 30
0.0
 41
1.0
  0
SPLINE
  5
18E
330
1F
100
AcDbEntity
  8
0
 62
     5
420
      255
100
AcDbSpline
210
0.0
220
0.0
230
1.0
 70
    15
 71
     2
 72
    48
 73
    45
 74
     0
 42
0.000000001
 43
0.0000000001
 40
0.0
 40
0.0
 40
0.0
 40
1.0
 40
1.0
 40
2.0
 40
2.0
 40
3.155100623312943
 40
3.155100623312943
 40
4.093445578312901
 40
4.093445578312901
 40
5.031790533312856
 40
5.031790533312856
 40
6.18682407146711
 40
6.18682407146711
 40
7.18682407146711
 40
7.18682407146711
 40
8.18682407146711
 40
8.18682407146711
 40
9.186824071467107
 40
9.186824071467107
 40
10.18682407146711
 40
10.18682407146711
 40
11.18682407146711
 40
11.18682407146711
 40
12.18682407146711
 40
12.18682407146711
 40
13.18682407146711
 40
13.18682407146711
 40
14.52193311721051
 40
14.52193311721051
 40
15.56260823732871
 40
15.56260823732871
 40
16.60328335744691
 40
16.60328335744691
 40
17.93824725589447
 40
17.93824725589447
 40
18.93824725589446
 40
18.93824725589446
 40
19.93824725589447
 40
19.93824725589447
 40
20.93824725589447
 40
20.93824725589447
 40
21.93824725589447
 40
21.93824725589447
 40
22.93824725589447
 40
22.93824725589447
 40
22.93824725589447
 10
4348.946236245086
 20
2246.055878639
 30
0.0
 41
1.0
 10
4353.147141076884
 20
2246.055878639
 30
0.0
 41
1.0
 10
4357.34804590868
 20
2246.055878639
 30
0.0
 41
1.0
 10
4357.34804590868
 20
2225.952099133325
 30
0.0
 41
1.0
 10
4357.348045908682
 20
2205.848319627651
 30
0.0
 41
1.0
 10
4357.348045908682
 20
2198.354081903883
 30
0.0
 41
0.83780262662879
 10
4364.204041361407
 20
2195.327710245826
 30
0.0
 41
1.0
 10
4375.017239688762
 20
2190.554551165359
 30
0.0
 41
0.8919427564735961
 10
4375.017017906422
 20
2182.478999716348
 30
0.0
 41
1.0
 10
4375.016796124081
 20
2174.403448267336
 30
0.0
 41
0.8919427564735961
 10
4364.2033355951
 20
2169.629306647905
 30
0.0
 41
1.0
 10
4357.348045908682
 20
2166.602697014706
 30
0.0
 41
0.8378209395075876
 10
4357.34804590868
 20
2159.109008833539
 30
0.0
 41
1.0
 10
4357.34804590868
 20
2060.852393111682
 30
0.0
 41
1.0
 10
4357.34804590868
 20
1962.595777389824
 30
0.0
 41
1.0
 10
4353.147141076884
 20
1962.404878799048
 30
0.0
 41
1.0
 10
4348.946236245086
 20
1962.213980208271
 30
0.0
 41
1.0
 10
4348.946236245086
 20
1991.153382672788
 30
0.0
 41
1.0
 10
4348.946236245086
 20
2020.092785137305
 30
0.0
 41
1.0
 10
4350.412486245087
 20
2020.092785137305
 30
0.0
 41
1.0
 10
4351.878736245088
 20
2020.092785137305
 30
0.0
 41
1.0
 10
4351.878736245088
 20
2021.242785137305
 30
0.0
 41
1.0
 10
4351.878736245088
 20
2022.392785137305
 30
0.0
 41
1.0
 10
4350.412486245087
 20
2022.392785137305
 30
0.0
 41
1.0
 10
4348.946236245086
 20
2022.392785137305
 30
0.0
 41
1.0
 10
4348.946236245086
 20
2093.630430758924
 30
0.0
 41
1.0
 10
4348.946236245086
 20
2164.868076380543
 30
0.0
 41
1.0
 10
4348.946236245086
 20
2173.933312964759
 30
0.0
 41
0.7853379276294377
 10
4357.760856051902
 20
2176.050148336045
 30
0.0
 41
1.0
 10
4366.74514351752
 20
2178.207729480764
 30
0.0
 41
0.8676514033495337
 10
4366.744604536934
 20
2182.476270701036
 30
0.0
 41
1.0
 10
4366.744065556348
 20
2186.74481192131
 30
0.0
 41
0.8676514033495337
 10
4357.759233032688
 20
2188.903903346015
 30
0.0
 41
1.0
 10
4348.946236245085
 20
2191.021701951605
 30
0.0
 41
0.7853828535345323
 10
4348.946236245085
 20
2200.085585408055
 30
0.0
 41
1.0
 10
4348.946236245086
 20
2204.767428801406
 30
0.0
 41
1.0
 10
4348.946236245086
 20
2209.449272194757
 30
0.0
 41
1.0
 10
4350.412486245087
 20
2209.449272194757
 30
0.0
 41
1.0
 10
4351.878736245088
 20
2209.449272194757
 30
0.0
 41
1.0
 10
4351.878736245088
 20
2210.599272194758
 30
0.0
 41
1.0
 10
4351.878736245088
 20
2211.749272194758
 30
0.0
 41
1.0
 10
4350.412486245087
 20
2211.749272194758
 30
0.0
 41
1.0
 10
4348.946236245086
 20
2211.749272194758
 30
0.0
 41
1.0
 10
4348.946236245086
 20
2228.902575416879
 30
0.0
 41
1.0
 10
4348.946236245086
 20
2246.055878639
 30
0.0
 41
1.0
  0
SPLINE
  5
18F
330
1F
100
AcDbEntity
  8
0
 62
     5
420
      255
100
AcDbSpline
210
0.0
220
0.0
230
1.0
 70
    15
 71
     2
 72
    48
 73
    45
 74
     0
 42
0.000000001
 43
0.0000000001
 40
0.0
 40
0.0
 40
0.0
 40
1.0
 40
1.0
 40
2.0
 40
2.0
 40
3.33496389844756
 40
3.33496389844756
 40
4.375639018564581
 40
4.375639018564581
 40
5.416314138681603
 40
5.416314138681603
 40
6.751423184426826
 40
6.751423184426826
 40
7.751423184426826
 40
7.751423184426826
 40
8.751423184426827
 40
8.751423184426827
 40
9.751423184426827
 40
9.751423184426827
 40
10.75142318442682
 40
10.75142318442682
 40
11.75142318442683
 40
11.75142318442683
 40
12.75142318442682
 40
12.75142318442682
 40
13.75142318442682
 40
13.75142318442682
 40
14.90645672258108
 40
14.90645672258108
 40
15.8448016775813
 40
15.8448016775813
 40
16.78314663258152
 40
16.78314663258152
 40
17.93824725589579
 40
17.93824725589579
 40
18.93824725589579
 40
18.93824725589579
 40
19.93824725589579
 40
19.93824725589579
 40
20.9382472558958
 40
20.9382472558958
 40
21.9382472558958
 40
21.9382472558958
 40
22.9382472558958
 40
22.9382472558958
 40
22.9382472558958
 10
4375.868505307655
 20
2209.449272194757
 30
0.0
 41
1.0
 10
4374.402255307654
 20
2209.449272194757
 30
0.0
 41
1.0
 10
4372.936005307654
 20
2209.449272194757
 30
0.0
 41
1.0
 10
4372.936005307654
 20
2203.583600766104
 30
0.0
 41
1.0
 10
4372.936005307654
 20
2197.717929337449
 30
0.0
 41
1.0
 10
4372.936005307654
 20
2188.654045881
 30
0.0
 41
0.7853828535345323
 10
4381.749002095256
 20
2186.53624727541
 30
0.0
 41
1.0
 10
4390.733834618903
 20
2184.377155850708
 30
0.0
 41
0.8676514033498259
 10
4390.734373599501
 20
2180.108614630441
 30
0.0
 41
1.0
 10
4390.734912580099
 20
2175.840073410174
 30
0.0
 41
0.8676514033498259
 10
4381.750625114459
 20
2173.682492265425
 30
0.0
 41
1.0
 10
4372.936005307627
 20
2171.565656894134
 30
0.0
 41
0.7853379276288747
 10
4372.936005307654
 20
2162.500420309906
 30
0.0
 41
1.0
 10
4372.936005307654
 20
2092.446602723605
 30
0.0
 41
1.0
 10
4372.936005307654
 20
2022.392785137304
 30
0.0
 41
1.0
 10
4374.402255307654
 20
2022.392785137304
 30
0.0
 41
1.0
 10
4375.868505307655
 20
2022.392785137304
 30
0.0
 41
1.0
 10
4375.868505307655
 20
2021.242785137304
 30
0.0
 41
1.0
 10
4375.868505307655
 20
2020.092785137304
 30
0.0
 41
1.0
 10
4374.402255307654
 20
2020.092785137304
 30
0.0
 41
1.0
 10
4372.936005307654
 20
2020.092785137304
 30
0.0
 41
1.0
 10
4372.936005307654
 20
1992.067908065104
 30
0.0
 41
1.0
 10
4372.936005307654
 20
1964.043030992903
 30
0.0
 41
1.0
 10
4377.136910139451
 20
1964.23392958368
 30
0.0
 41
1.0
 10
4381.337814971248
 20
1964.424828174457
 30
0.0
 41
1.0
 10
4381.337814971248
 20
2060.583090468695
 30
0.0
 41
1.0
 10
4381.337814971248
 20
2156.741352762933
 30
0.0
 41
1.0
 10
4381.337814971249
 20
2164.235040944095
 30
0.0
 41
0.8378209395075876
 10
4388.19310465767
 20
2167.261650577295
 30
0.0
 41
1.0
 10
4399.006565186653
 20
2172.035792196733
 30
0.0
 41
0.8919427564735359
 10
4399.006786968989
 20
2180.111343645747
 30
0.0
 41
1.0
 10
4399.007008751326
 20
2188.186895094761
 30
0.0
 41
0.8919427564735359
 10
4388.193810423963
 20
2192.960054175228
 30
0.0
 41
1.0
 10
4381.337814971231
 20
2195.986425833283
 30
0.0
 41
0.8378026266284274
 10
4381.337814971239
 20
2203.480663557063
 30
0.0
 41
1.0
 10
4381.337814971248
 20
2224.768271098032
 30
0.0
 41
1.0
 10
4381.337814971248
 20
2246.055878639
 30
0.0
 41
1.0
 10
4377.136910139451
 20
2246.055878639
 30
0.0
 41
1.0
 10
4372.936005307654
 20
2246.055878639
 30
0.0
 41
1.0
 10
4372.936005307654
 20
2228.902575416879
 30
0.0
 41
1.0
 10
4372.936005307654
 20
2211.749272194757
 30
0.0
 41
1.0
 10
4374.402255307654
 20
2211.749272194758
 30
0.0
 41
1.0
 10
4375.868505307655
 20
2211.749272194758
 30
0.0
 41
1.0
 10
4375.868505307655
 20
2210.599272194758
 30
0.0
 41
1.0
 10
4375.868505307655
 20
2209.449272194757
 30
0.0
 41
1.0
  0
SPLINE
  5
190
330
1F
100
AcDbEntity
  8
0
 62
     5
420
      255
100
AcDbSpline
210
0.0
220
0.0
230
1.0
 70
    15
 71
     2
 72
    48
 73
    45
 74
     0
 42
0.000000001
 43
0.0000000001
 40
0.0
 40
0.0
 40
0.0
 40
1.0
 40
1.0
 40
2.0
 40
2.0
 40
3.155100623313852
 40
3.155100623313852
 40
4.093445578314115
 40
4.093445578314115
 40
5.031790533314375
 40
5.031790533314375
 40
6.186824071468629
 40
6.186824071468629
 40
7.186824071468629
 40
7.186824071468629
 40
8.186824071468632
 40
8.186824071468632
 40
9.186824071468632
 40
9.186824071468632
 40
10.18682407146863
 40
10.18682407146863
 40
11.18682407146863
 40
11.18682407146863
 40
12.18682407146863
 40
12.18682407146863
 40
13.18682407146863
 40
13.18682407146863
 40
14.52193311721203
 40
14.52193311721203
 40
15.5626082373302
 40
15.5626082373302
 40
16.60328335744837
 40
16.60328335744837
 40
17.93824725589592
 40
17.93824725589592
 40
18.93824725589593
 40
18.93824725589593
 40
19.93824725589593
 40
19.93824725589593
 40
20.93824725589593
 40
20.93824725589593
 40
21.93824725589593
 40
21.93824725589593
 40
22.93824725589593
 40
22.93824725589593
 40
22.93824725589593
 10
4396.925774370219
 20
2246.055878638999
 30
0.0
 41
1.0
 10
4401.126679202017
 20
2246.055878638999
 30
0.0
 41
1.0
 10
4405.327584033814
 20
2246.055878638999
 30
0.0
 41
1.0
 10
4405.327584033814
 20
2223.584443062732
 30
0.0
 41
1.0
 10
4405.327584033807
 20
2201.113007486464
 30
0.0
 41
1.0
 10
4405.327584033801
 20
2193.618769762688
 30
0.0
 41
0.8378026266285417
 10
4412.183579486529
 20
2190.592398104624
 30
0.0
 41
1.0
 10
4422.996777813892
 20
2185.819239024159
 30
0.0
 41
0.8919427564735268
 10
4422.996556031558
 20
2177.743687575144
 30
0.0
 41
1.0
 10
4422.996334249218
 20
2169.66813612613
 30
0.0
 41
0.8919427564735268
 10
4412.182873720236
 20
2164.893994506694
 30
0.0
 41
1.0
 10
4405.327584033815
 20
2161.867384873493
 30
0.0
 41
0.8378209395075876
 10
4405.327584033814
 20
2154.37369669233
 30
0.0
 41
1.0
 10
4405.327584033814
 20
2060.31378782571
 30
0.0
 41
1.0
 10
4405.327584033814
 20
1966.253878959089
 30
0.0
 41
1.0
 10
4401.126679202017
 20
1966.062980368312
 30
0.0
 41
1.0
 10
4396.925774370219
 20
1965.872081777535
 30
0.0
 41
1.0
 10
4396.925774370219
 20
1992.982433457419
 30
0.0
 41
1.0
 10
4396.925774370219
 20
2020.092785137304
 30
0.0
 41
1.0
 10
4398.392024370221
 20
2020.092785137304
 30
0.0
 41
1.0
 10
4399.858274370222
 20
2020.092785137304
 30
0.0
 41
1.0
 10
4399.858274370222
 20
2021.242785137304
 30
0.0
 41
1.0
 10
4399.858274370222
 20
2022.392785137304
 30
0.0
 41
1.0
 10
4398.392024370221
 20
2022.392785137304
 30
0.0
 41
1.0
 10
4396.925774370219
 20
2022.392785137304
 30
0.0
 41
1.0
 10
4396.925774370219
 20
2091.26277468832
 30
0.0
 41
1.0
 10
4396.925774370219
 20
2160.132764239336
 30
0.0
 41
1.0
 10
4396.925774370223
 20
2169.198000823554
 30
0.0
 41
0.7853379276294377
 10
4405.740394177037
 20
2171.31483619484
 30
0.0
 41
1.0
 10
4414.724681642652
 20
2173.472417339556
 30
0.0
 41
0.8676514033495415
 10
4414.724142662067
 20
2177.74095855983
 30
0.0
 41
1.0
 10
4414.723603681482
 20
2182.009499780102
 30
0.0
 41
0.8676514033495415
 10
4405.738771157823
 20
2184.168591204807
 30
0.0
 41
1.0
 10
4396.925774370219
 20
2186.286389810398
 30
0.0
 41
0.7853828535345323
 10
4396.925774370219
 20
2195.350273266848
 30
0.0
 41
1.0
 10
4396.925774370219
 20
2202.399772730802
 30
0.0
 41
1.0
 10
4396.925774370219
 20
2209.449272194757
 30
0.0
 41
1.0
 10
4398.392024370221
 20
2209.449272194757
 30
0.0
 41
1.0
 10
4399.858274370222
 20
2209.449272194757
 30
0.0
 41
1.0
 10
4399.858274370222
 20
2210.599272194757
 30
0.0
 41
1.0
 10
4399.858274370222
 20
2211.749272194757
 30
0.0
 41
1.0
 10
4398.392024370221
 20
2211.749272194757
 30
0.0
 41
1.0
 10
4396.925774370219
 20
2211.749272194757
 30
0.0
 41
1.0
 10
4396.925774370219
 20
2228.902575416879
 30
0.0
 41
1.0
 10
4396.925774370219
 20
2246.055878638999
 30
0.0
 41
1.0
  0
SPLINE
  5
191
330
1F
100
AcDbEntity
  8
0
 62
     5
420
      255
100
AcDbSpline
210
0.0
220
0.0
230
1.0
 70
    15
 71
     2
 72
    48
 73
    45
 74
     0
 42
0.000000001
 43
0.0000000001
 40
0.0
 40
0.0
 40
0.0
 40
1.0
 40
1.0
 40
2.0
 40
2.0
 40
3.155100623312943
 40
3.155100623312943
 40
4.093445578313033
 40
4.093445578313033
 40
5.031790533313126
 40
5.031790533313126
 40
6.186824071468552
 40
6.186824071468552
 40
7.186824071468552
 40
7.186824071468552
 40
8.186824071468552
 40
8.186824071468552
 40
9.186824071468552
 40
9.186824071468552
 40
10.18682407146855
 40
10.18682407146855
 40
11.18682407146855
 40
11.18682407146855
 40
12.18682407146855
 40
12.18682407146855
 40
13.18682407146855
 40
13.18682407146855
 40
14.52193311721378
 40
14.52193311721378
 40
15.5626082373308
 40
15.5626082373308
 40
16.60328335744782
 40
16.60328335744782
 40
17.93824725589538
 40
17.93824725589538
 40
18.93824725589538
 40
18.93824725589538
 40
19.93824725589538
 40
19.93824725589538
 40
20.93824725589538
 40
20.93824725589538
 40
21.93824725589538
 40
21.93824725589538
 40
22.93824725589538
 40
22.93824725589538
 40
22.93824725589538
 10
4421.052724999792
 20
2245.962896099686
 30
0.0
 41
1.0
 10
4425.253629831589
 20
2245.962896099686
 30
0.0
 41
1.0
 10
4429.454534663384
 20
2245.962896099686
 30
0.0
 41
1.0
 10
4429.454534663384
 20
2222.307632488105
 30
0.0
 41
1.0
 10
4429.454534663388
 20
2198.652368876525
 30
0.0
 41
1.0
 10
4429.454534663389
 20
2191.158131152756
 30
0.0
 41
0.83780262662879
 10
4436.310530116105
 20
2188.131759494704
 30
0.0
 41
1.0
 10
4447.123728443465
 20
2183.358600414237
 30
0.0
 41
0.8919427564735656
 10
4447.123506661127
 20
2175.283048965224
 30
0.0
 41
1.0
 10
4447.12328487879
 20
2167.207497516212
 30
0.0
 41
0.8919427564735656
 10
4436.309824349812
 20
2162.433355896788
 30
0.0
 41
1.0
 10
4429.454534663377
 20
2159.406746263591
 30
0.0
 41
0.8378209395072671
 10
4429.454534663384
 20
2151.913058082413
 30
0.0
 41
1.0
 10
4429.454534663384
 20
2059.95150264341
 30
0.0
 41
1.0
 10
4429.454534663384
 20
1967.989947204408
 30
0.0
 41
1.0
 10
4425.253629831589
 20
1967.799048613631
 30
0.0
 41
1.0
 10
4421.052724999792
 20
1967.608150022855
 30
0.0
 41
1.0
 10
4421.052724999792
 20
1993.803976310422
 30
0.0
 41
1.0
 10
4421.052724999792
 20
2019.999802597991
 30
0.0
 41
1.0
 10
4422.518974999792
 20
2019.999802597991
 30
0.0
 41
1.0
 10
4423.985224999791
 20
2019.999802597991
 30
0.0
 41
1.0
 10
4423.985224999791
 20
2021.149802597991
 30
0.0
 41
1.0
 10
4423.985224999791
 20
2022.29980259799
 30
0.0
 41
1.0
 10
4422.518974999792
 20
2022.29980259799
 30
0.0
 41
1.0
 10
4421.052724999792
 20
2022.29980259799
 30
0.0
 41
1.0
 10
4421.052724999792
 20
2089.985964113688
 30
0.0
 41
1.0
 10
4421.052724999792
 20
2157.672125629387
 30
0.0
 41
1.0
 10
4421.052724999767
 20
2166.737362213617
 30
0.0
 41
0.7853379276288747
 10
4429.867344806597
 20
2168.854197584907
 30
0.0
 41
1.0
 10
4438.851632272235
 20
2171.011778729654
 30
0.0
 41
0.8676514033498259
 10
4438.851093291638
 20
2175.28031994992
 30
0.0
 41
1.0
 10
4438.850554311041
 20
2179.548861170187
 30
0.0
 41
0.8676514033498259
 10
4429.865721787392
 20
2181.707952594889
 30
0.0
 41
1.0
 10
4421.052724999789
 20
2183.825751200478
 30
0.0
 41
0.7853828535345323
 10
4421.052724999789
 20
2192.889634656928
 30
0.0
 41
1.0
 10
4421.052724999792
 20
2201.122962156186
 30
0.0
 41
1.0
 10
4421.052724999792
 20
2209.356289655444
 30
0.0
 41
1.0
 10
4422.518974999792
 20
2209.356289655444
 30
0.0
 41
1.0
 10
4423.985224999791
 20
2209.356289655444
 30
0.0
 41
1.0
 10
4423.985224999791
 20
2210.506289655444
 30
0.0
 41
1.0
 10
4423.985224999791
 20
2211.656289655444
 30
0.0
 41
1.0
 10
4422.518974999792
 20
2211.656289655444
 30
0.0
 41
1.0
 10
4421.052724999792
 20
2211.656289655444
 30
0.0
 41
1.0
 10
4421.052724999792
 20
2228.809592877565
 30
0.0
 41
1.0
 10
4421.052724999792
 20
2245.962896099686
 30
0.0
 41
1.0
  0
SPLINE
  5
192
330
1F
100
AcDbEntity
  8
0
 62
     5
420
      255
100
AcDbSpline
210
0.0
220
0.0
230
1.0
 70
    15
 71
     2
 72
    48
 73
    45
 74
     0
 42
0.000000001
 43
0.0000000001
 40
0.0
 40
0.0
 40
0.0
 40
1.0
 40
1.0
 40
2.0
 40
2.0
 40
3.155100623312941
 40
3.155100623312941
 40
4.09344557831304
 40
4.09344557831304
 40
5.031790533313136
 40
5.031790533313136
 40
6.186824071467391
 40
6.186824071467391
 40
7.186824071467391
 40
7.186824071467391
 40
8.186824071467392
 40
8.186824071467392
 40
9.186824071467392
 40
9.186824071467392
 40
10.18682407146739
 40
10.18682407146739
 40
11.18682407146739
 40
11.18682407146739
 40
12.18682407146739
 40
12.18682407146739
 40
13.18682407146739
 40
13.18682407146739
 40
14.52193311721079
 40
14.52193311721079
 40
15.56260823732904
 40
15.56260823732904
 40
16.60328335744729
 40
16.60328335744729
 40
17.93824725589485
 40
17.93824725589485
 40
18.93824725589485
 40
18.93824725589485
 40
19.93824725589485
 40
19.93824725589485
 40
20.93824725589485
 40
20.93824725589485
 40
21.93824725589485
 40
21.93824725589485
 40
22.93824725589485
 40
22.93824725589485
 40
22.93824725589485
 10
4445.042494062358
 20
2245.962896099685
 30
0.0
 41
1.0
 10
4449.243398894156
 20
2245.962896099685
 30
0.0
 41
1.0
 10
4453.444303725951
 20
2245.962896099685
 30
0.0
 41
1.0
 10
4453.444303725951
 20
2221.123804452802
 30
0.0
 41
1.0
 10
4453.444303725955
 20
2196.284712805922
 30
0.0
 41
1.0
 10
4453.444303725955
 20
2188.790475082153
 30
0.0
 41
0.83780262662879
 10
4460.300299178672
 20
2185.764103424101
 30
0.0
 41
1.0
 10
4471.113497506031
 20
2180.990944343633
 30
0.0
 41
0.8919427564735642
 10
4471.113275723694
 20
2172.91539289462
 30
0.0
 41
1.0
 10
4471.113053941357
 20
2164.839841445608
 30
0.0
 41
0.8919427564735642
 10
4460.29959341237
 20
2160.065699826173
 30
0.0
 41
1.0
 10
4453.44430372595
 20
2157.039090192972
 30
0.0
 41
0.8378209395075876
 10
4453.444303725951
 20
2149.545402011809
 30
0.0
 41
1.0
 10
4453.444303725951
 20
2059.682200000426
 30
0.0
 41
1.0
 10
4453.444303725951
 20
1969.81899798904
 30
0.0
 41
1.0
 10
4449.243398894156
 20
1969.628099398263
 30
0.0
 41
1.0
 10
4445.042494062358
 20
1969.437200807487
 30
0.0
 41
1.0
 10
4445.042494062358
 20
1994.718501702738
 30
0.0
 41
1.0
 10
4445.042494062358
 20
2019.99980259799
 30
0.0
 41
1.0
 10
4446.508744062358
 20
2019.99980259799
 30
0.0
 41
1.0
 10
4447.974994062358
 20
2019.99980259799
 30
0.0
 41
1.0
 10
4447.974994062358
 20
2021.149802597991
 30
0.0
 41
1.0
 10
4447.974994062358
 20
2022.29980259799
 30
0.0
 41
1.0
 10
4446.508744062358
 20
2022.29980259799
 30
0.0
 41
1.0
 10
4445.042494062358
 20
2022.29980259799
 30
0.0
 41
1.0
 10
4445.042494062358
 20
2088.802136078397
 30
0.0
 41
1.0
 10
4445.042494062358
 20
2155.304469558806
 30
0.0
 41
1.0
 10
4445.042494062353
 20
2164.369706143026
 30
0.0
 41
0.7853379276294377
 10
4453.857113869168
 20
2166.486541514313
 30
0.0
 41
1.0
 10
4462.841401334791
 20
2168.644122659034
 30
0.0
 41
0.8676514033495211
 10
4462.840862354204
 20
2172.912663879307
 30
0.0
 41
1.0
 10
4462.840323373621
 20
2177.18120509958
 30
0.0
 41
0.8676514033495211
 10
4453.855490849961
 20
2179.340296524286
 30
0.0
 41
1.0
 10
4445.042494062355
 20
2181.458095129876
 30
0.0
 41
0.7853828535345323
 10
4445.042494062355
 20
2190.521978586325
 30
0.0
 41
1.0
 10
4445.042494062358
 20
2199.939134120885
 30
0.0
 41
1.0
 10
4445.042494062358
 20
2209.356289655443
 30
0.0
 41
1.0
 10
4446.508744062358
 20
2209.356289655443
 30
0.0
 41
1.0
 10
4447.974994062358
 20
2209.356289655443
 30
0.0
 41
1.0
 10
4447.974994062358
 20
2210.506289655443
 30
0.0
 41
1.0
 10
4447.974994062358
 20
2211.656289655444
 30
0.0
 41
1.0
 10
4446.508744062358
 20
2211.656289655444
 30
0.0
 41
1.0
 10
4445.042494062358
 20
2211.656289655444
 30
0.0
 41
1.0
 10
4445.042494062358
 20
2228.809592877564
 30
0.0
 41
1.0
 10
4445.042494062358
 20
2245.962896099685
 30
0.0
 41
1.0
  0
SPLINE
  5
193
330
1F
100
AcDbEntity
  8
0
 62
     5
420
      255
100
AcDbSpline
210
0.0
220
0.0
230
1.0
 70
    15
 71
     2
 72
    48
 73
    45
 74
     0
 42
0.000000001
 43
0.0000000001
 40
0.0
 40
0.0
 40
0.0
 40
1.0
 40
1.0
 40
2.0
 40
2.0
 40
3.155100623315936
 40
3.155100623315936
 40
4.093445578316146
 40
4.093445578316146
 40
5.031790533316358
 40
5.031790533316358
 40
6.186824071470612
 40
6.186824071470612
 40
7.186824071470612
 40
7.186824071470612
 40
8.186824071470612
 40
8.186824071470612
 40
9.186824071470612
 40
9.186824071470612
 40
10.18682407147061
 40
10.18682407147061
 40
11.18682407147061
 40
11.18682407147061
 40
12.18682407147061
 40
12.18682407147061
 40
13.18682407147061
 40
13.18682407147061
 40
14.52193311721402
 40
14.52193311721402
 40
15.56260823733075
 40
15.56260823733075
 40
16.60328335744749
 40
16.60328335744749
 40
17.93824725589505
 40
17.93824725589505
 40
18.93824725589506
 40
18.93824725589506
 40
19.93824725589506
 40
19.93824725589506
 40
20.93824725589506
 40
20.93824725589506
 40
21.93824725589506
 40
21.93824725589506
 40
22.93824725589506
 40
22.93824725589506
 40
22.93824725589506
 10
4469.032263124925
 20
2245.962896099685
 30
0.0
 41
1.0
 10
4473.233167956722
 20
2245.962896099685
 30
0.0
 41
1.0
 10
4477.434072788519
 20
2245.962896099685
 30
0.0
 41
1.0
 10
4477.434072788519
 20
2219.93997641752
 30
0.0
 41
1.0
 10
4477.434072788502
 20
2193.917056735355
 30
0.0
 41
1.0
 10
4477.43407278849
 20
2186.422819011561
 30
0.0
 41
0.8378026266279727
 10
4484.290068241235
 20
2183.3964473535
 30
0.0
 41
1.0
 10
4495.103266568599
 20
2178.623288273032
 30
0.0
 41
0.8919427564735384
 10
4495.103044786261
 20
2170.547736824019
 30
0.0
 41
1.0
 10
4495.102823003926
 20
2162.472185375005
 30
0.0
 41
0.8919427564735384
 10
4484.289362474938
 20
2157.698043755567
 30
0.0
 41
1.0
 10
4477.434072788519
 20
2154.671434122368
 30
0.0
 41
0.8378209395075876
 10
4477.434072788519
 20
2147.177745941202
 30
0.0
 41
1.0
 10
4477.434072788519
 20
2059.412897357437
 30
0.0
 41
1.0
 10
4477.434072788519
 20
1971.648048773672
 30
0.0
 41
1.0
 10
4473.233167956722
 20
1971.457150182896
 30
0.0
 41
1.0
 10
4469.032263124925
 20
1971.266251592119
 30
0.0
 41
1.0
 10
4469.032263124925
 20
1995.633027095054
 30
0.0
 41
1.0
 10
4469.032263124925
 20
2019.99980259799
 30
0.0
 41
1.0
 10
4470.498513124926
 20
2019.99980259799
 30
0.0
 41
1.0
 10
4471.964763124926
 20
2019.99980259799
 30
0.0
 41
1.0
 10
4471.964763124926
 20
2021.149802597991
 30
0.0
 41
1.0
 10
4471.964763124926
 20
2022.29980259799
 30
0.0
 41
1.0
 10
4470.498513124926
 20
2022.29980259799
 30
0.0
 41
1.0
 10
4469.032263124925
 20
2022.29980259799
 30
0.0
 41
1.0
 10
4469.032263124925
 20
2087.6183080431
 30
0.0
 41
1.0
 10
4469.032263124925
 20
2152.936813488211
 30
0.0
 41
1.0
 10
4469.032263124927
 20
2162.002050072429
 30
0.0
 41
0.7853379276294377
 10
4477.846882931741
 20
2164.118885443716
 30
0.0
 41
1.0
 10
4486.831170397372
 20
2166.276466588449
 30
0.0
 41
0.8676514033498962
 10
4486.830631416773
 20
2170.545007808715
 30
0.0
 41
1.0
 10
4486.830092436171
 20
2174.81354902898
 30
0.0
 41
0.8676514033498962
 10
4477.845259912527
 20
2176.972640453682
 30
0.0
 41
1.0
 10
4469.032263124927
 20
2179.090439059271
 30
0.0
 41
0.7853828535345323
 10
4469.032263124927
 20
2188.154322515721
 30
0.0
 41
1.0
 10
4469.032263124927
 20
2198.755306085582
 30
0.0
 41
1.0
 10
4469.032263124927
 20
2209.356289655443
 30
0.0
 41
1.0
 10
4470.498513124926
 20
2209.356289655443
 30
0.0
 41
1.0
 10
4471.964763124926
 20
2209.356289655443
 30
0.0
 41
1.0
 10
4471.964763124926
 20
2210.506289655443
 30
0.0
 41
1.0
 10
4471.964763124926
 20
2211.656289655444
 30
0.0
 41
1.0
 10
4470.498513124926
 20
2211.656289655444
 30
0.0
 41
1.0
 10
4469.032263124925
 20
2211.656289655444
 30
0.0
 41
1.0
 10
4469.032263124927
 20
2228.809592877564
 30
0.0
 41
1.0
 10
4469.032263124925
 20
2245.962896099685
 30
0.0
 41
1.0
  0
SPLINE
  5
194
330
1F
100
AcDbEntity
  8
0
 62
     5
420
      255
100
AcDbSpline
210
0.0
220
0.0
230
1.0
 70
    15
 71
     2
 72
    48
 73
    45
 74
     0
 42
0.000000001
 43
0.0000000001
 40
0.0
 40
0.0
 40
0.0
 40
1.0
 40
1.0
 40
2.0
 40
2.0
 40
3.155100623312941
 40
3.155100623312941
 40
4.093445578313028
 40
4.093445578313028
 40
5.031790533313116
 40
5.031790533313116
 40
6.186824071467368
 40
6.186824071467368
 40
7.186824071467368
 40
7.186824071467368
 40
8.18682407146737
 40
8.18682407146737
 40
9.186824071467367
 40
9.186824071467367
 40
10.18682407146737
 40
10.18682407146737
 40
11.18682407146737
 40
11.18682407146737
 40
12.18682407146737
 40
12.18682407146737
 40
13.18682407146737
 40
13.18682407146737
 40
14.52193311721077
 40
14.52193311721077
 40
15.56260823732751
 40
15.56260823732751
 40
16.60328335744425
 40
16.60328335744425
 40
17.93824725589181
 40
17.93824725589181
 40
18.93824725589181
 40
18.93824725589181
 40
19.93824725589181
 40
19.93824725589181
 40
20.93824725589181
 40
20.93824725589181
 40
21.93824725589181
 40
21.93824725589181
 40
22.93824725589181
 40
22.93824725589181
 40
22.93824725589181
 10
4493.022032187493
 20
2245.962896099685
 30
0.0
 41
1.0
 10
4497.22293701929
 20
2245.962896099685
 30
0.0
 41
1.0
 10
4501.423841851085
 20
2245.962896099685
 30
0.0
 41
1.0
 10
4501.423841851085
 20
2218.756148382198
 30
0.0
 41
1.0
 10
4501.423841851081
 20
2191.54940066471
 30
0.0
 41
1.0
 10
4501.423841851079
 20
2184.055162940941
 30
0.0
 41
0.83780262662879
 10
4508.279837303808
 20
2181.028791282892
 30
0.0
 41
1.0
 10
4519.093035631165
 20
2176.255632202426
 30
0.0
 41
0.8919427564735665
 10
4519.092813848828
 20
2168.180080753413
 30
0.0
 41
1.0
 10
4519.09259206649
 20
2160.1045293044
 30
0.0
 41
0.8919427564735665
 10
4508.279131537507
 20
2155.330387684963
 30
0.0
 41
1.0
 10
4501.423841851088
 20
2152.303778051763
 30
0.0
 41
0.8378209395075876
 10
4501.423841851085
 20
2144.810089870602
 30
0.0
 41
1.0
 10
4501.423841851085
 20
2059.143594714453
 30
0.0
 41
1.0
 10
4501.423841851085
 20
1973.477099558305
 30
0.0
 41
1.0
 10
4497.22293701929
 20
1973.286200967528
 30
0.0
 41
1.0
 10
4493.022032187493
 20
1973.095302376751
 30
0.0
 41
1.0
 10
4493.022032187493
 20
1996.54755248737
 30
0.0
 41
1.0
 10
4493.022032187493
 20
2019.999802597989
 30
0.0
 41
1.0
 10
4494.488282187493
 20
2019.999802597989
 30
0.0
 41
1.0
 10
4495.954532187494
 20
2019.999802597989
 30
0.0
 41
1.0
 10
4495.954532187494
 20
2021.149802597989
 30
0.0
 41
1.0
 10
4495.954532187494
 20
2022.299802597989
 30
0.0
 41
1.0
 10
4494.488282187493
 20
2022.299802597989
 30
0.0
 41
1.0
 10
4493.022032187493
 20
2022.299802597989
 30
0.0
 41
1.0
 10
4493.022032187493
 20
2086.434480007797
 30
0.0
 41
1.0
 10
4493.022032187493
 20
2150.569157417606
 30
0.0
 41
1.0
 10
4493.022032187492
 20
2159.634394001823
 30
0.0
 41
0.7853379276294377
 10
4501.836651994306
 20
2161.75122937311
 30
0.0
 41
1.0
 10
4510.820939459939
 20
2163.908810517845
 30
0.0
 41
0.8676514033498962
 10
4510.820400479338
 20
2168.177351738111
 30
0.0
 41
1.0
 10
4510.819861498738
 20
2172.445892958376
 30
0.0
 41
0.8676514033498962
 10
4501.835028975096
 20
2174.604984383078
 30
0.0
 41
1.0
 10
4493.022032187493
 20
2176.722782988667
 30
0.0
 41
0.7853828535345323
 10
4493.022032187493
 20
2185.786666445116
 30
0.0
 41
1.0
 10
4493.022032187493
 20
2197.57147805028
 30
0.0
 41
1.0
 10
4493.022032187493
 20
2209.356289655443
 30
0.0
 41
1.0
 10
4494.488282187493
 20
2209.356289655443
 30
0.0
 41
1.0
 10
4495.954532187494
 20
2209.356289655443
 30
0.0
 41
1.0
 10
4495.954532187494
 20
2210.506289655443
 30
0.0
 41
1.0
 10
4495.954532187494
 20
2211.656289655444
 30
0.0
 41
1.0
 10
4494.488282187493
 20
2211.656289655444
 30
0.0
 41
1.0
 10
4493.022032187493
 20
2211.656289655444
 30
0.0
 41
1.0
 10
4493.022032187493
 20
2228.809592877563
 30
0.0
 41
1.0
 10
4493.022032187493
 20
2245.962896099685
 30
0.0
 41
1.0
  0
SPLINE
  5
195
330
1F
100
AcDbEntity
  8
0
 62
     5
420
      255
100
AcDbSpline
210
0.0
220
0.0
230
1.0
 70
    15
 71
     2
 72
    48
 73
    45
 74
     0
 42
0.000000001
 43
0.0000000001
 40
0.0
 40
0.0
 40
0.0
 40
1.0
 40
1.0
 40
2.0
 40
2.0
 40
3.155100623312943
 40
3.155100623312943
 40
4.093445578312901
 40
4.093445578312901
 40
5.031790533312856
 40
5.031790533312856
 40
6.18682407146711
 40
6.18682407146711
 40
7.18682407146711
 40
7.18682407146711
 40
8.18682407146711
 40
8.18682407146711
 40
9.186824071467107
 40
9.186824071467107
 40
10.18682407146711
 40
10.18682407146711
 40
11.18682407146711
 40
11.18682407146711
 40
12.18682407146711
 40
12.18682407146711
 40
13.18682407146711
 40
13.18682407146711
 40
14.52193311721051
 40
14.52193311721051
 40
15.56260823732869
 40
15.56260823732869
 40
16.60328335744688
 40
16.60328335744688
 40
17.93824725589444
 40
17.93824725589444
 40
18.93824725589444
 40
18.93824725589444
 40
19.93824725589444
 40
19.93824725589444
 40
20.93824725589444
 40
20.93824725589444
 40
21.93824725589444
 40
21.93824725589444
 40
22.93824725589444
 40
22.93824725589444
 40
22.93824725589444
 10
4517.01180125006
 20
2245.962896099685
 30
0.0
 41
1.0
 10
4521.212706081857
 20
2245.962896099685
 30
0.0
 41
1.0
 10
4525.413610913653
 20
2245.962896099685
 30
0.0
 41
1.0
 10
4525.413610913653
 20
2217.572320346897
 30
0.0
 41
1.0
 10
4525.413610913651
 20
2189.181744594108
 30
0.0
 41
1.0
 10
4525.413610913652
 20
2181.687506870339
 30
0.0
 41
0.83780262662879
 10
4532.26960636638
 20
2178.661135212286
 30
0.0
 41
1.0
 10
4543.082804693734
 20
2173.887976131818
 30
0.0
 41
0.8919427564735961
 10
4543.082582911395
 20
2165.812424682806
 30
0.0
 41
1.0
 10
4543.082361129056
 20
2157.736873233795
 30
0.0
 41
0.8919427564735961
 10
4532.268900600072
 20
2152.96273161436
 30
0.0
 41
1.0
 10
4525.413610913653
 20
2149.93612198116
 30
0.0
 41
0.8378209395075876
 10
4525.413610913653
 20
2142.442433799998
 30
0.0
 41
1.0
 10
4525.413610913653
 20
2058.874292071467
 30
0.0
 41
1.0
 10
4525.413610913653
 20
1975.306150342937
 30
0.0
 41
1.0
 10
4521.212706081857
 20
1975.11525175216
 30
0.0
 41
1.0
 10
4517.01180125006
 20
1974.924353161383
 30
0.0
 41
1.0
 10
4517.01180125006
 20
1997.462077879686
 30
0.0
 41
1.0
 10
4517.01180125006
 20
2019.999802597989
 30
0.0
 41
1.0
 10
4518.47805125006
 20
2019.999802597989
 30
0.0
 41
1.0
 10
4519.944301250061
 20
2019.999802597989
 30
0.0
 41
1.0
 10
4519.944301250061
 20
2021.149802597989
 30
0.0
 41
1.0
 10
4519.944301250061
 20
2022.299802597989
 30
0.0
 41
1.0
 10
4518.47805125006
 20
2022.299802597989
 30
0.0
 41
1.0
 10
4517.01180125006
 20
2022.299802597989
 30
0.0
 41
1.0
 10
4517.01180125006
 20
2085.250651972496
 30
0.0
 41
1.0
 10
4517.01180125006
 20
2148.201501347003
 30
0.0
 41
1.0
 10
4517.011801250059
 20
2157.266737931219
 30
0.0
 41
0.7853379276294377
 10
4525.826421056874
 20
2159.383573302505
 30
0.0
 41
1.0
 10
4534.810708522494
 20
2161.541154447223
 30
0.0
 41
0.8676514033495376
 10
4534.810169541906
 20
2165.809695667496
 30
0.0
 41
1.0
 10
4534.809630561318
 20
2170.078236887769
 30
0.0
 41
0.8676514033495376
 10
4525.824798037661
 20
2172.237328312474
 30
0.0
 41
1.0
 10
4517.011801250059
 20
2174.355126918065
 30
0.0
 41
0.7853828535345323
 10
4517.011801250059
 20
2183.419010374515
 30
0.0
 41
1.0
 10
4517.01180125006
 20
2196.387650014979
 30
0.0
 41
1.0
 10
4517.01180125006
 20
2209.356289655442
 30
0.0
 41
1.0
 10
4518.47805125006
 20
2209.356289655442
 30
0.0
 41
1.0
 10
4519.944301250061
 20
2209.356289655442
 30
0.0
 41
1.0
 10
4519.944301250061
 20
2210.506289655442
 30
0.0
 41
1.0
 10
4519.944301250061
 20
2211.656289655442
 30
0.0
 41
1.0
 10
4518.47805125006
 20
2211.656289655442
 30
0.0
 41
1.0
 10
4517.01180125006
 20
2211.656289655442
 30
0.0
 41
1.0
 10
4517.01180125006
 20
2228.809592877563
 30
0.0
 41
1.0
 10
4517.01180125006
 20
2245.962896099685
 30
0.0
 41
1.0
  0
SPLINE
  5
196
330
1F
100
AcDbEntity
  8
0
 62
     5
420
      255
100
AcDbSpline
210
0.0
220
0.0
230
1.0
 70
    15
 71
     2
 72
    48
 73
    45
 74
     0
 42
0.000000001
 43
0.0000000001
 40
0.0
 40
0.0
 40
0.0
 40
1.0
 40
1.0
 40
2.0
 40
2.0
 40
3.155100623313852
 40
3.155100623313852
 40
4.093445578314192
 40
4.093445578314192
 40
5.031790533314525
 40
5.031790533314525
 40
6.186824071468778
 40
6.186824071468778
 40
7.186824071468778
 40
7.186824071468778
 40
8.18682407146878
 40
8.18682407146878
 40
9.186824071468777
 40
9.186824071468777
 40
10.18682407146878
 40
10.18682407146878
 40
11.18682407146878
 40
11.18682407146878
 40
12.18682407146878
 40
12.18682407146878
 40
13.18682407146878
 40
13.18682407146878
 40
14.52193311721218
 40
14.52193311721218
 40
15.56260823733029
 40
15.56260823733029
 40
16.60328335744839
 40
16.60328335744839
 40
17.93824725589595
 40
17.93824725589595
 40
18.93824725589595
 40
18.93824725589595
 40
19.93824725589595
 40
19.93824725589595
 40
20.93824725589596
 40
20.93824725589596
 40
21.93824725589596
 40
21.93824725589596
 40
22.93824725589596
 40
22.93824725589596
 40
22.93824725589596
 10
4541.001570312628
 20
2245.962896099685
 30
0.0
 41
1.0
 10
4545.202475144423
 20
2245.962896099685
 30
0.0
 41
1.0
 10
4549.40337997622
 20
2245.962896099685
 30
0.0
 41
1.0
 10
4549.40337997622
 20
2216.38849231161
 30
0.0
 41
1.0
 10
4549.403379976213
 20
2186.814088523533
 30
0.0
 41
1.0
 10
4549.403379976206
 20
2179.319850799757
 30
0.0
 41
0.8378026266285417
 10
4556.259375428932
 20
2176.293479141689
 30
0.0
 41
1.0
 10
4567.072573756297
 20
2171.520320061224
 30
0.0
 41
0.89194275647351
 10
4567.072351973962
 20
2163.444768612209
 30
0.0
 41
1.0
 10
4567.072130191626
 20
2155.369217163193
 30
0.0
 41
0.89194275647351
 10
4556.258669662645
 20
2150.595075543757
 30
0.0
 41
1.0
 10
4549.403379976225
 20
2147.568465910556
 30
0.0
 41
0.8378209395075876
 10
4549.40337997622
 20
2140.074777729395
 30
0.0
 41
1.0
 10
4549.40337997622
 20
2058.604989428482
 30
0.0
 41
1.0
 10
4549.40337997622
 20
1977.135201127569
 30
0.0
 41
1.0
 10
4545.202475144423
 20
1976.944302536792
 30
0.0
 41
1.0
 10
4541.001570312628
 20
1976.753403946016
 30
0.0
 41
1.0
 10
4541.001570312628
 20
1998.376603272002
 30
0.0
 41
1.0
 10
4541.001570312628
 20
2019.999802597988
 30
0.0
 41
1.0
 10
4542.467820312627
 20
2019.999802597988
 30
0.0
 41
1.0
 10
4543.934070312626
 20
2019.999802597988
 30
0.0
 41
1.0
 10
4543.934070312626
 20
2021.149802597988
 30
0.0
 41
1.0
 10
4543.934070312626
 20
2022.299802597988
 30
0.0
 41
1.0
 10
4542.467820312627
 20
2022.299802597988
 30
0.0
 41
1.0
 10
4541.001570312628
 20
2022.299802597988
 30
0.0
 41
1.0
 10
4541.001570312628
 20
2084.066823937186
 30
0.0
 41
1.0
 10
4541.001570312628
 20
2145.833845276383
 30
0.0
 41
1.0
 10
4541.001570312628
 20
2154.899081860604
 30
0.0
 41
0.7853379276294377
 10
4549.81619011944
 20
2157.015917231891
 30
0.0
 41
1.0
 10
4558.800477585061
 20
2159.17349837662
 30
0.0
 41
0.8676514033495566
 10
4558.799938604471
 20
2163.442039596892
 30
0.0
 41
1.0
 10
4558.799399623887
 20
2167.710580817165
 30
0.0
 41
0.8676514033495566
 10
4549.81456710023
 20
2169.869672241869
 30
0.0
 41
1.0
 10
4541.001570312626
 20
2171.987470847458
 30
0.0
 41
0.7853828535345323
 10
4541.001570312626
 20
2181.051354303908
 30
0.0
 41
1.0
 10
4541.001570312628
 20
2195.203821979677
 30
0.0
 41
1.0
 10
4541.001570312628
 20
2209.356289655441
 30
0.0
 41
1.0
 10
4542.467820312627
 20
2209.356289655441
 30
0.0
 41
1.0
 10
4543.934070312626
 20
2209.356289655441
 30
0.0
 41
1.0
 10
4543.934070312626
 20
2210.506289655441
 30
0.0
 41
1.0
 10
4543.934070312626
 20
2211.656289655441
 30
0.0
 41
1.0
 10
4542.467820312627
 20
2211.656289655441
 30
0.0
 41
1.0
 10
4541.001570312628
 20
2211.656289655441
 30
0.0
 41
1.0
 10
4541.001570312628
 20
2228.809592877563
 30
0.0
 41
1.0
 10
4541.001570312628
 20
2245.962896099685
 30
0.0
 41
1.0
  0
SPLINE
  5
197
330
1F
100
AcDbEntity
  8
0
 62
     5
420
      255
100
AcDbSpline
210
0.0
220
0.0
230
1.0
 70
    15
 71
     2
 72
    48
 73
    45
 74
     0
 42
0.000000001
 43
0.0000000001
 40
0.0
 40
0.0
 40
0.0
 40
1.0
 40
1.0
 40
2.0
 40
2.0
 40
3.155100623312943
 40
3.155100623312943
 40
4.093445578312912
 40
4.093445578312912
 40
5.031790533312878
 40
5.031790533312878
 40
6.186824071467132
 40
6.186824071467132
 40
7.186824071467132
 40
7.186824071467132
 40
8.186824071467132
 40
8.186824071467132
 40
9.186824071467132
 40
9.186824071467132
 40
10.18682407146713
 40
10.18682407146713
 40
11.18682407146713
 40
11.18682407146713
 40
12.18682407146713
 40
12.18682407146713
 40
13.18682407146713
 40
13.18682407146713
 40
14.52193311721052
 40
14.52193311721052
 40
15.5626082373287
 40
15.5626082373287
 40
16.60328335744687
 40
16.60328335744687
 40
17.93824725589443
 40
17.93824725589443
 40
18.93824725589443
 40
18.93824725589443
 40
19.93824725589442
 40
19.93824725589442
 40
20.93824725589443
 40
20.93824725589443
 40
21.93824725589443
 40
21.93824725589443
 40
22.93824725589443
 40
22.93824725589443
 40
22.93824725589443
 10
4564.991339375193
 20
2245.962896099684
 30
0.0
 41
1.0
 10
4569.192244206991
 20
2245.962896099684
 30
0.0
 41
1.0
 10
4573.393149038787
 20
2245.962896099684
 30
0.0
 41
1.0
 10
4573.393149038787
 20
2215.204664276292
 30
0.0
 41
1.0
 10
4573.393149038787
 20
2184.446432452901
 30
0.0
 41
1.0
 10
4573.393149038788
 20
2176.952194729132
 30
0.0
 41
0.83780262662879
 10
4580.249144491516
 20
2173.925823071078
 30
0.0
 41
1.0
 10
4591.06234281887
 20
2169.152663990611
 30
0.0
 41
0.8919427564735934
 10
4591.06212103653
 20
2161.077112541599
 30
0.0
 41
1.0
 10
4591.06189925419
 20
2153.001561092587
 30
0.0
 41
0.8919427564735934
 10
4580.248438725204
 20
2148.227419473156
 30
0.0
 41
1.0
 10
4573.393149038786
 20
2145.200809839955
 30
0.0
 41
0.8378209395075876
 10
4573.393149038787
 20
2137.70712165879
 30
0.0
 41
1.0
 10
4573.393149038787
 20
2058.335686785496
 30
0.0
 41
1.0
 10
4573.393149038787
 20
1978.964251912201
 30
0.0
 41
1.0
 10
4569.192244206991
 20
1978.773353321424
 30
0.0
 41
1.0
 10
4564.991339375193
 20
1978.582454730648
 30
0.0
 41
1.0
 10
4564.991339375195
 20
1999.291128664318
 30
0.0
 41
1.0
 10
4564.991339375195
 20
2019.999802597988
 30
0.0
 41
1.0
 10
4566.457589375195
 20
2019.999802597988
 30
0.0
 41
1.0
 10
4567.923839375195
 20
2019.999802597988
 30
0.0
 41
1.0
 10
4567.923839375195
 20
2021.149802597988
 30
0.0
 41
1.0
 10
4567.923839375195
 20
2022.299802597988
 30
0.0
 41
1.0
 10
4566.457589375195
 20
2022.299802597988
 30
0.0
 41
1.0
 10
4564.991339375195
 20
2022.299802597988
 30
0.0
 41
1.0
 10
4564.991339375195
 20
2082.882995901891
 30
0.0
 41
1.0
 10
4564.991339375193
 20
2143.466189205796
 30
0.0
 41
1.0
 10
4564.991339375196
 20
2152.53142579001
 30
0.0
 41
0.7853379276294377
 10
4573.805959182011
 20
2154.648261161298
 30
0.0
 41
1.0
 10
4582.790246647626
 20
2156.805842306016
 30
0.0
 41
0.8676514033495415
 10
4582.78970766704
 20
2161.074383526289
 30
0.0
 41
1.0
 10
4582.789168686455
 20
2165.34292474656
 30
0.0
 41
0.8676514033495415
 10
4573.804336162797
 20
2167.502016171267
 30
0.0
 41
1.0
 10
4564.991339375192
 20
2169.619814776853
 30
0.0
 41
0.7853828535345323
 10
4564.99133937519
 20
2178.683698233303
 30
0.0
 41
1.0
 10
4564.991339375193
 20
2194.019993944374
 30
0.0
 41
1.0
 10
4564.991339375193
 20
2209.356289655442
 30
0.0
 41
1.0
 10
4566.457589375195
 20
2209.356289655441
 30
0.0
 41
1.0
 10
4567.923839375195
 20
2209.356289655441
 30
0.0
 41
1.0
 10
4567.923839375195
 20
2210.506289655441
 30
0.0
 41
1.0
 10
4567.923839375195
 20
2211.656289655441
 30
0.0
 41
1.0
 10
4566.457589375195
 20
2211.656289655441
 30
0.0
 41
1.0
 10
4564.991339375195
 20
2211.656289655441
 30
0.0
 41
1.0
 10
4564.991339375193
 20
2228.809592877563
 30
0.0
 41
1.0
 10
4564.991339375193
 20
2245.962896099684
 30
0.0
 41
1.0
  0
SPLINE
  5
198
330
1F
100
AcDbEntity
  8
0
 62
     5
420
      255
100
AcDbSpline
210
0.0
220
0.0
230
1.0
 70
    15
 71
     2
 72
    48
 73
    45
 74
     0
 42
0.000000001
 43
0.0000000001
 40
0.0
 40
0.0
 40
0.0
 40
1.0
 40
1.0
 40
2.0
 40
2.0
 40
3.155100623312943
 40
3.155100623312943
 40
4.093445578313038
 40
4.093445578313038
 40
5.031790533313132
 40
5.031790533313132
 40
6.186824071467388
 40
6.186824071467388
 40
7.186824071467388
 40
7.186824071467388
 40
8.186824071467388
 40
8.186824071467388
 40
9.186824071467386
 40
9.186824071467386
 40
10.18682407146739
 40
10.18682407146739
 40
11.18682407146739
 40
11.18682407146739
 40
12.18682407146739
 40
12.18682407146739
 40
13.18682407146739
 40
13.18682407146739
 40
14.52193311721079
 40
14.52193311721079
 40
15.5626082373286
 40
15.5626082373286
 40
16.6032833574464
 40
16.6032833574464
 40
17.93824725589397
 40
17.93824725589397
 40
18.93824725589397
 40
18.93824725589397
 40
19.93824725589397
 40
19.93824725589397
 40
20.93824725589397
 40
20.93824725589397
 40
21.93824725589397
 40
21.93824725589397
 40
22.93824725589397
 40
22.93824725589397
 40
22.93824725589397
 10
4588.981108437762
 20
2245.962896099683
 30
0.0
 41
1.0
 10
4593.182013269559
 20
2245.962896099683
 30
0.0
 41
1.0
 10
4597.382918101354
 20
2245.962896099683
 30
0.0
 41
1.0
 10
4597.382918101354
 20
2214.020836240991
 30
0.0
 41
1.0
 10
4597.382918101359
 20
2182.078776382299
 30
0.0
 41
1.0
 10
4597.382918101356
 20
2174.58453865853
 30
0.0
 41
0.83780262662879
 10
4604.238913554076
 20
2171.558167000477
 30
0.0
 41
1.0
 10
4615.052111881435
 20
2166.785007920009
 30
0.0
 41
0.8919427564735645
 10
4615.051890099095
 20
2158.709456470996
 30
0.0
 41
1.0
 10
4615.051668316757
 20
2150.633905021984
 30
0.0
 41
0.8919427564735645
 10
4604.238207787776
 20
2145.859763402549
 30
0.0
 41
1.0
 10
4597.382918101357
 20
2142.833153769349
 30
0.0
 41
0.8378209395075876
 10
4597.382918101354
 20
2135.339465588184
 30
0.0
 41
1.0
 10
4597.382918101354
 20
2058.066384142509
 30
0.0
 41
1.0
 10
4597.382918101354
 20
1980.793302696833
 30
0.0
 41
1.0
 10
4593.182013269559
 20
1980.602404106057
 30
0.0
 41
1.0
 10
4588.981108437762
 20
1980.41150551528
 30
0.0
 41
1.0
 10
4588.981108437762
 20
2000.205654056634
 30
0.0
 41
1.0
 10
4588.981108437763
 20
2019.999802597988
 30
0.0
 41
1.0
 10
4590.447358437763
 20
2019.999802597988
 30
0.0
 41
1.0
 10
4591.913608437763
 20
2019.999802597988
 30
0.0
 41
1.0
 10
4591.913608437763
 20
2021.149802597988
 30
0.0
 41
1.0
 10
4591.913608437763
 20
2022.299802597988
 30
0.0
 41
1.0
 10
4590.447358437763
 20
2022.299802597988
 30
0.0
 41
1.0
 10
4588.981108437763
 20
2022.299802597988
 30
0.0
 41
1.0
 10
4588.981108437762
 20
2081.699167866586
 30
0.0
 41
1.0
 10
4588.981108437762
 20
2141.098533135185
 30
0.0
 41
1.0
 10
4588.981108437759
 20
2150.163769719406
 30
0.0
 41
0.7853379276294377
 10
4597.795728244575
 20
2152.280605090693
 30
0.0
 41
1.0
 10
4606.780015710188
 20
2154.43818623541
 30
0.0
 41
0.8676514033496303
 10
4606.779476729607
 20
2158.706727455681
 30
0.0
 41
1.0
 10
4606.778937749026
 20
2162.975268675953
 30
0.0
 41
0.8676514033496303
 10
4597.794105225375
 20
2165.13436010066
 30
0.0
 41
1.0
 10
4588.981108437763
 20
2167.252158706252
 30
0.0
 41
0.7853828535345323
 10
4588.981108437763
 20
2176.316042162701
 30
0.0
 41
1.0
 10
4588.981108437762
 20
2192.836165909071
 30
0.0
 41
1.0
 10
4588.981108437762
 20
2209.356289655441
 30
0.0
 41
1.0
 10
4590.447358437763
 20
2209.356289655441
 30
0.0
 41
1.0
 10
4591.913608437763
 20
2209.356289655441
 30
0.0
 41
1.0
 10
4591.913608437763
 20
2210.506289655441
 30
0.0
 41
1.0
 10
4591.913608437763
 20
2211.656289655441
 30
0.0
 41
1.0
 10
4590.447358437763
 20
2211.656289655441
 30
0.0
 41
1.0
 10
4588.981108437763
 20
2211.656289655441
 30
0.0
 41
1.0
 10
4588.981108437762
 20
2228.809592877562
 30
0.0
 41
1.0
 10
4588.981108437762
 20
2245.962896099683
 30
0.0
 41
1.0
  0
SPLINE
  5
199
330
1F
100
AcDbEntity
  8
0
 62
     5
420
      255
100
AcDbSpline
210
0.0
220
0.0
230
1.0
 70
    15
 71
     2
 72
    48
 73
    45
 74
     0
 42
0.000000001
 43
0.0000000001
 40
0.0
 40
0.0
 40
0.0
 40
1.0
 40
1.0
 40
2.0
 40
2.0
 40
3.155100623312943
 40
3.155100623312943
 40
4.093445578313046
 40
4.093445578313046
 40
5.031790533313146
 40
5.031790533313146
 40
6.186824071467402
 40
6.186824071467402
 40
7.186824071467402
 40
7.186824071467402
 40
8.186824071467402
 40
8.186824071467402
 40
9.186824071467402
 40
9.186824071467402
 40
10.1868240714674
 40
10.1868240714674
 40
11.1868240714674
 40
11.1868240714674
 40
12.1868240714674
 40
12.1868240714674
 40
13.1868240714674
 40
13.1868240714674
 40
14.52193311721081
 40
14.52193311721081
 40
15.56260823732754
 40
15.56260823732754
 40
16.60328335744428
 40
16.60328335744428
 40
17.93824725589184
 40
17.93824725589184
 40
18.93824725589184
 40
18.93824725589184
 40
19.93824725589184
 40
19.93824725589184
 40
20.93824725589184
 40
20.93824725589184
 40
21.93824725589184
 40
21.93824725589184
 40
22.93824725589185
 40
22.93824725589185
 40
22.93824725589185
 10
4612.970877500329
 20
2245.962896099683
 30
0.0
 41
1.0
 10
4617.171782332125
 20
2245.962896099683
 30
0.0
 41
1.0
 10
4621.372687163921
 20
2245.962896099683
 30
0.0
 41
1.0
 10
4621.372687163921
 20
2212.837008205688
 30
0.0
 41
1.0
 10
4621.372687163923
 20
2179.711120311694
 30
0.0
 41
1.0
 10
4621.372687163921
 20
2172.216882587927
 30
0.0
 41
0.83780262662879
 10
4628.228682616642
 20
2169.190510929873
 30
0.0
 41
1.0
 10
4639.041880944001
 20
2164.417351849406
 30
0.0
 41
0.8919427564735631
 10
4639.041659161663
 20
2156.341800400392
 30
0.0
 41
1.0
 10
4639.041437379324
 20
2148.26624895138
 30
0.0
 41
0.8919427564735631
 10
4628.227976850342
 20
2143.492107331942
 30
0.0
 41
1.0
 10
4621.372687163923
 20
2140.465497698741
 30
0.0
 41
0.8378209395075876
 10
4621.372687163921
 20
2132.97180951758
 30
0.0
 41
1.0
 10
4621.372687163921
 20
2057.797081499523
 30
0.0
 41
1.0
 10
4621.372687163921
 20
1982.622353481466
 30
0.0
 41
1.0
 10
4617.171782332125
 20
1982.431454890689
 30
0.0
 41
1.0
 10
4612.970877500329
 20
1982.240556299912
 30
0.0
 41
1.0
 10
4612.970877500329
 20
2001.12017944895
 30
0.0
 41
1.0
 10
4612.970877500329
 20
2019.999802597987
 30
0.0
 41
1.0
 10
4614.437127500329
 20
2019.999802597987
 30
0.0
 41
1.0
 10
4615.903377500329
 20
2019.999802597987
 30
0.0
 41
1.0
 10
4615.903377500329
 20
2021.149802597988
 30
0.0
 41
1.0
 10
4615.903377500329
 20
2022.299802597987
 30
0.0
 41
1.0
 10
4614.437127500329
 20
2022.299802597987
 30
0.0
 41
1.0
 10
4612.970877500329
 20
2022.299802597987
 30
0.0
 41
1.0
 10
4612.970877500329
 20
2080.515339831285
 30
0.0
 41
1.0
 10
4612.970877500329
 20
2138.730877064583
 30
0.0
 41
1.0
 10
4612.97087750033
 20
2147.796113648801
 30
0.0
 41
0.7853379276294377
 10
4621.785497307145
 20
2149.912949020087
 30
0.0
 41
1.0
 10
4630.769784772774
 20
2152.070530164825
 30
0.0
 41
0.8676514033498962
 10
4630.769245792174
 20
2156.339071385091
 30
0.0
 41
1.0
 10
4630.768706811575
 20
2160.607612605357
 30
0.0
 41
0.8676514033498962
 10
4621.78387428793
 20
2162.766704030059
 30
0.0
 41
1.0
 10
4612.970877500329
 20
2164.884502635648
 30
0.0
 41
0.7853828535345323
 10
4612.970877500327
 20
2173.948386092098
 30
0.0
 41
1.0
 10
4612.970877500329
 20
2191.652337873769
 30
0.0
 41
1.0
 10
4612.970877500329
 20
2209.35628965544
 30
0.0
 41
1.0
 10
4614.437127500329
 20
2209.35628965544
 30
0.0
 41
1.0
 10
4615.903377500329
 20
2209.35628965544
 30
0.0
 41
1.0
 10
4615.903377500329
 20
2210.50628965544
 30
0.0
 41
1.0
 10
4615.903377500329
 20
2211.65628965544
 30
0.0
 41
1.0
 10
4614.437127500329
 20
2211.65628965544
 30
0.0
 41
1.0
 10
4612.970877500329
 20
2211.65628965544
 30
0.0
 41
1.0
 10
4612.970877500329
 20
2228.809592877562
 30
0.0
 41
1.0
 10
4612.970877500329
 20
2245.962896099683
 30
0.0
 41
1.0
  0
SPLINE
  5
19A
330
1F
100
AcDbEntity
  8
0
 62
     5
420
      255
100
AcDbSpline
210
0.0
220
0.0
230
1.0
 70
    15
 71
     2
 72
    48
 73
    45
 74
     0
 42
0.000000001
 43
0.0000000001
 40
0.0
 40
0.0
 40
0.0
 40
1.0
 40
1.0
 40
2.0
 40
2.0
 40
3.155100623312943
 40
3.155100623312943
 40
4.093445578313064
 40
4.093445578313064
 40
5.031790533313188
 40
5.031790533313188
 40
6.186824071468187
 40
6.186824071468187
 40
7.186824071468187
 40
7.186824071468187
 40
8.186824071468187
 40
8.186824071468187
 40
9.186824071468187
 40
9.186824071468187
 40
10.18682407146819
 40
10.18682407146819
 40
11.18682407146819
 40
11.18682407146819
 40
12.18682407146818
 40
12.18682407146818
 40
13.18682407146819
 40
13.18682407146819
 40
14.5219331172125
 40
14.5219331172125
 40
15.56260823733047
 40
15.56260823733047
 40
16.60328335744845
 40
16.60328335744845
 40
17.93824725589601
 40
17.93824725589601
 40
18.93824725589601
 40
18.93824725589601
 40
19.93824725589601
 40
19.93824725589601
 40
20.93824725589601
 40
20.93824725589601
 40
21.93824725589601
 40
21.93824725589601
 40
22.93824725589601
 40
22.93824725589601
 40
22.93824725589601
 10
4636.960646562894
 20
2245.962896099683
 30
0.0
 41
1.0
 10
4641.161551394691
 20
2245.962896099683
 30
0.0
 41
1.0
 10
4645.362456226489
 20
2245.962896099683
 30
0.0
 41
1.0
 10
4645.362456226489
 20
2211.653180170386
 30
0.0
 41
1.0
 10
4645.362456226487
 20
2177.34346424109
 30
0.0
 41
1.0
 10
4645.362456226488
 20
2169.849226517319
 30
0.0
 41
0.83780262662879
 10
4652.218451679211
 20
2166.822854859268
 30
0.0
 41
1.0
 10
4663.03165000657
 20
2162.049695778801
 30
0.0
 41
0.8919427564735585
 10
4663.031428224229
 20
2153.974144329788
 30
0.0
 41
1.0
 10
4663.031206441892
 20
2145.898592880775
 30
0.0
 41
0.8919427564735585
 10
4652.217745912913
 20
2141.124451261346
 30
0.0
 41
1.0
 10
4645.362456226484
 20
2138.097841628147
 30
0.0
 41
0.8378209395073843
 10
4645.362456226489
 20
2130.604153446975
 30
0.0
 41
1.0
 10
4645.362456226489
 20
2057.527778856537
 30
0.0
 41
1.0
 10
4645.362456226489
 20
1984.451404266098
 30
0.0
 41
1.0
 10
4641.161551394691
 20
1984.260505675321
 30
0.0
 41
1.0
 10
4636.960646562894
 20
1984.069607084545
 30
0.0
 41
1.0
 10
4636.960646562894
 20
2002.034704841266
 30
0.0
 41
1.0
 10
4636.960646562896
 20
2019.999802597987
 30
0.0
 41
1.0
 10
4638.426896562896
 20
2019.999802597987
 30
0.0
 41
1.0
 10
4639.893146562895
 20
2019.999802597987
 30
0.0
 41
1.0
 10
4639.893146562895
 20
2021.149802597987
 30
0.0
 41
1.0
 10
4639.893146562895
 20
2022.299802597987
 30
0.0
 41
1.0
 10
4638.426896562896
 20
2022.299802597987
 30
0.0
 41
1.0
 10
4636.960646562896
 20
2022.299802597987
 30
0.0
 41
1.0
 10
4636.960646562894
 20
2079.331511795974
 30
0.0
 41
1.0
 10
4636.960646562894
 20
2136.363220993962
 30
0.0
 41
1.0
 10
4636.960646562882
 20
2145.428457578187
 30
0.0
 41
0.7853379276291566
 10
4645.775266369702
 20
2147.545292949476
 30
0.0
 41
1.0
 10
4654.759553835319
 20
2149.7028740942
 30
0.0
 41
0.8676514033495895
 10
4654.759014854742
 20
2153.971415314472
 30
0.0
 41
1.0
 10
4654.758475874163
 20
2158.239956534744
 30
0.0
 41
0.8676514033495895
 10
4645.773643350509
 20
2160.399047959451
 30
0.0
 41
1.0
 10
4636.960646562896
 20
2162.516846565042
 30
0.0
 41
0.7853828535345323
 10
4636.960646562896
 20
2171.580730021492
 30
0.0
 41
1.0
 10
4636.960646562894
 20
2190.468509838467
 30
0.0
 41
1.0
 10
4636.960646562896
 20
2209.35628965544
 30
0.0
 41
1.0
 10
4638.426896562896
 20
2209.35628965544
 30
0.0
 41
1.0
 10
4639.893146562895
 20
2209.35628965544
 30
0.0
 41
1.0
 10
4639.893146562895
 20
2210.50628965544
 30
0.0
 41
1.0
 10
4639.893146562895
 20
2211.65628965544
 30
0.0
 41
1.0
 10
4638.426896562896
 20
2211.65628965544
 30
0.0
 41
1.0
 10
4636.960646562896
 20
2211.65628965544
 30
0.0
 41
1.0
 10
4636.960646562894
 20
2228.809592877561
 30
0.0
 41
1.0
 10
4636.960646562894
 20
2245.962896099683
 30
0.0
 41
1.0
  0
SPLINE
  5
19B
330
1F
100
AcDbEntity
  8
0
 62
     5
420
      255
100
AcDbSpline
210
0.0
220
0.0
230
1.0
 70
    15
 71
     2
 72
    48
 73
    45
 74
     0
 42
0.000000001
 43
0.0000000001
 40
0.0
 40
0.0
 40
0.0
 40
1.0
 40
1.0
 40
2.0
 40
2.0
 40
3.155100623312943
 40
3.155100623312943
 40
4.093445578313438
 40
4.093445578313438
 40
5.031790533313931
 40
5.031790533313931
 40
6.186824071471177
 40
6.186824071471177
 40
7.186824071471177
 40
7.186824071471177
 40
8.186824071471177
 40
8.186824071471177
 40
9.186824071471175
 40
9.186824071471175
 40
10.18682407147118
 40
10.18682407147118
 40
11.18682407147118
 40
11.18682407147118
 40
12.18682407147118
 40
12.18682407147118
 40
13.18682407147118
 40
13.18682407147118
 40
14.52193311721549
 40
14.52193311721549
 40
15.56260823733311
 40
15.56260823733311
 40
16.60328335745073
 40
16.60328335745073
 40
17.9382472558983
 40
17.9382472558983
 40
18.9382472558983
 40
18.9382472558983
 40
19.9382472558983
 40
19.9382472558983
 40
20.9382472558983
 40
20.9382472558983
 40
21.9382472558983
 40
21.9382472558983
 40
22.9382472558983
 40
22.9382472558983
 40
22.9382472558983
 10
4293.949358204359
 20
2273.959818988348
 30
0.0
 41
1.0
 10
4298.150263036155
 20
2273.959818988348
 30
0.0
 41
1.0
 10
4302.351167867952
 20
2273.959818988348
 30
0.0
 41
1.0
 10
4302.351167867952
 20
2346.152032047301
 30
0.0
 41
1.0
 10
4302.351167867946
 20
2418.344245106258
 30
0.0
 41
1.0
 10
4302.351167867946
 20
2425.838482830029
 30
0.0
 41
0.83780262662879
 10
4309.207163320674
 20
2428.864854488076
 30
0.0
 41
1.0
 10
4320.020361648038
 20
2433.638013568546
 30
0.0
 41
0.8919427564734744
 10
4320.020139865692
 20
2441.713565017562
 30
0.0
 41
1.0
 10
4320.019918083349
 20
2449.789116466579
 30
0.0
 41
0.8919427564734744
 10
4309.20645755437
 20
2454.563258086023
 30
0.0
 41
1.0
 10
4302.351167867924
 20
2457.589867719228
 30
0.0
 41
0.8378209395067706
 10
4302.351167867952
 20
2465.083555900421
 30
0.0
 41
1.0
 10
4302.351167867952
 20
2501.38285734427
 30
0.0
 41
1.0
 10
4302.351167867952
 20
2537.682158788117
 30
0.0
 41
1.0
 10
4298.150263036155
 20
2537.491260197342
 30
0.0
 41
1.0
 10
4293.949358204359
 20
2537.300361606565
 30
0.0
 41
1.0
 10
4293.949358204359
 20
2518.611637048305
 30
0.0
 41
1.0
 10
4293.94935820436
 20
2499.922912490044
 30
0.0
 41
1.0
 10
4295.41560820436
 20
2499.922912490044
 30
0.0
 41
1.0
 10
4296.881858204357
 20
2499.922912490044
 30
0.0
 41
1.0
 10
4296.881858204357
 20
2498.772912490043
 30
0.0
 41
1.0
 10
4296.881858204357
 20
2497.622912490044
 30
0.0
 41
1.0
 10
4295.41560820436
 20
2497.622912490044
 30
0.0
 41
1.0
 10
4293.94935820436
 20
2497.622912490044
 30
0.0
 41
1.0
 10
4293.949358204359
 20
2478.473700421711
 30
0.0
 41
1.0
 10
4293.949358204359
 20
2459.32448835338
 30
0.0
 41
1.0
 10
4293.949358204348
 20
2450.259251769157
 30
0.0
 41
0.7853379276291566
 10
4302.76397801117
 20
2448.142416397868
 30
0.0
 41
1.0
 10
4311.748265476797
 20
2445.984835253133
 30
0.0
 41
0.867651403349677
 10
4311.747726496204
 20
2441.716294032864
 30
0.0
 41
1.0
 10
4311.747187515613
 20
2437.447752812594
 30
0.0
 41
0.867651403349677
 10
4302.76235499196
 20
2435.288661387891
 30
0.0
 41
1.0
 10
4293.94935820436
 20
2433.170862782299
 30
0.0
 41
0.7853828535345323
 10
4293.94935820436
 20
2424.106979325849
 30
0.0
 41
1.0
 10
4293.949358204359
 20
2367.33670237922
 30
0.0
 41
1.0
 10
4293.949358204359
 20
2310.56642543259
 30
0.0
 41
1.0
 10
4295.41560820436
 20
2310.56642543259
 30
0.0
 41
1.0
 10
4296.881858204357
 20
2310.56642543259
 30
0.0
 41
1.0
 10
4296.881858204357
 20
2309.416425432591
 30
0.0
 41
1.0
 10
4296.881858204357
 20
2308.26642543259
 30
0.0
 41
1.0
 10
4295.41560820436
 20
2308.26642543259
 30
0.0
 41
1.0
 10
4293.94935820436
 20
2308.26642543259
 30
0.0
 41
1.0
 10
4293.949358204359
 20
2291.11312221047
 30
0.0
 41
1.0
 10
4293.949358204359
 20
2273.959818988348
 30
0.0
 41
1.0
  0
SPLINE
  5
19C
330
1F
100
AcDbEntity
  8
0
 62
     5
420
      255
100
AcDbSpline
210
0.0
220
0.0
230
1.0
 70
    15
 71
     2
 72
    48
 73
    45
 74
     0
 42
0.000000001
 43
0.0000000001
 40
0.0
 40
0.0
 40
0.0
 40
1.0
 40
1.0
 40
2.0
 40
2.0
 40
3.155100623312943
 40
3.155100623312943
 40
4.093445578313018
 40
4.093445578313018
 40
5.031790533313096
 40
5.031790533313096
 40
6.186824071468524
 40
6.186824071468524
 40
7.186824071468524
 40
7.186824071468524
 40
8.186824071468523
 40
8.186824071468523
 40
9.186824071468523
 40
9.186824071468523
 40
10.18682407146852
 40
10.18682407146852
 40
11.18682407146852
 40
11.18682407146852
 40
12.18682407146852
 40
12.18682407146852
 40
13.18682407146852
 40
13.18682407146852
 40
14.52193311721284
 40
14.52193311721284
 40
15.56260823733127
 40
15.56260823733127
 40
16.6032833574497
 40
16.6032833574497
 40
17.93824725589727
 40
17.93824725589727
 40
18.93824725589727
 40
18.93824725589727
 40
19.93824725589727
 40
19.93824725589727
 40
20.93824725589727
 40
20.93824725589727
 40
21.93824725589727
 40
21.93824725589727
 40
22.93824725589727
 40
22.93824725589727
 40
22.93824725589727
 10
4318.076308833929
 20
2273.959818988348
 30
0.0
 41
1.0
 10
4322.277213665724
 20
2273.959818988348
 30
0.0
 41
1.0
 10
4326.478118497521
 20
2273.959818988348
 30
0.0
 41
1.0
 10
4326.478118497521
 20
2347.335860082603
 30
0.0
 41
1.0
 10
4326.478118497521
 20
2420.711901176856
 30
0.0
 41
1.0
 10
4326.478118497521
 20
2428.206138900626
 30
0.0
 41
0.83780262662879
 10
4333.334113950243
 20
2431.232510558679
 30
0.0
 41
1.0
 10
4344.147312277601
 20
2436.005669639147
 30
0.0
 41
0.8919427564735688
 10
4344.147090495263
 20
2444.08122108816
 30
0.0
 41
1.0
 10
4344.146868712924
 20
2452.156772537172
 30
0.0
 41
0.8919427564735688
 10
4333.333408183949
 20
2456.930914156597
 30
0.0
 41
1.0
 10
4326.478118497515
 20
2459.957523789792
 30
0.0
 41
0.8378209395072671
 10
4326.478118497521
 20
2467.451211970969
 30
0.0
 41
1.0
 10
4326.478118497521
 20
2503.481210771861
 30
0.0
 41
1.0
 10
4326.478118497521
 20
2539.511209572751
 30
0.0
 41
1.0
 10
4322.277213665724
 20
2539.320310981975
 30
0.0
 41
1.0
 10
4318.076308833929
 20
2539.129412391198
 30
0.0
 41
1.0
 10
4318.076308833929
 20
2519.52616244062
 30
0.0
 41
1.0
 10
4318.076308833931
 20
2499.922912490045
 30
0.0
 41
1.0
 10
4319.542558833928
 20
2499.922912490045
 30
0.0
 41
1.0
 10
4321.008808833929
 20
2499.922912490045
 30
0.0
 41
1.0
 10
4321.008808833929
 20
2498.772912490045
 30
0.0
 41
1.0
 10
4321.008808833929
 20
2497.622912490044
 30
0.0
 41
1.0
 10
4319.542558833928
 20
2497.622912490044
 30
0.0
 41
1.0
 10
4318.076308833931
 20
2497.622912490044
 30
0.0
 41
1.0
 10
4318.076308833929
 20
2479.657528457019
 30
0.0
 41
1.0
 10
4318.076308833929
 20
2461.692144423992
 30
0.0
 41
1.0
 10
4318.076308833917
 20
2452.626907839768
 30
0.0
 41
0.7853379276291566
 10
4326.89092864074
 20
2450.510072468479
 30
0.0
 41
1.0
 10
4335.875216106359
 20
2448.352491323747
 30
0.0
 41
0.8676514033494751
 10
4335.874677125775
 20
2444.083950103474
 30
0.0
 41
1.0
 10
4335.874138145191
 20
2439.815408883198
 30
0.0
 41
0.8676514033494751
 10
4326.889305621528
 20
2437.656317458494
 30
0.0
 41
1.0
 10
4318.076308833926
 20
2435.538518852906
 30
0.0
 41
0.7853828535345323
 10
4318.076308833927
 20
2426.474635396457
 30
0.0
 41
1.0
 10
4318.076308833929
 20
2368.520530414523
 30
0.0
 41
1.0
 10
4318.076308833929
 20
2310.56642543259
 30
0.0
 41
1.0
 10
4319.542558833928
 20
2310.56642543259
 30
0.0
 41
1.0
 10
4321.008808833929
 20
2310.56642543259
 30
0.0
 41
1.0
 10
4321.008808833929
 20
2309.416425432591
 30
0.0
 41
1.0
 10
4321.008808833929
 20
2308.26642543259
 30
0.0
 41
1.0
 10
4319.542558833928
 20
2308.26642543259
 30
0.0
 41
1.0
 10
4318.076308833931
 20
2308.26642543259
 30
0.0
 41
1.0
 10
4318.076308833929
 20
2291.11312221047
 30
0.0
 41
1.0
 10
4318.076308833929
 20
2273.959818988348
 30
0.0
 41
1.0
  0
SPLINE
  5
19D
330
1F
100
AcDbEntity
  8
0
 62
     5
420
      255
100
AcDbSpline
210
0.0
220
0.0
230
1.0
 70
    15
 71
     2
 72
    48
 73
    45
 74
     0
 42
0.000000001
 43
0.0000000001
 40
0.0
 40
0.0
 40
0.0
 40
1.0
 40
1.0
 40
2.0
 40
2.0
 40
3.155100623313852
 40
3.155100623313852
 40
4.093445578314239
 40
4.093445578314239
 40
5.031790533314626
 40
5.031790533314626
 40
6.18682407146888
 40
6.18682407146888
 40
7.18682407146888
 40
7.18682407146888
 40
8.18682407146888
 40
8.18682407146888
 40
9.186824071468882
 40
9.186824071468882
 40
10.18682407146888
 40
10.18682407146888
 40
11.18682407146888
 40
11.18682407146888
 40
12.18682407146888
 40
12.18682407146888
 40
13.18682407146888
 40
13.18682407146888
 40
14.52193311721228
 40
14.52193311721228
 40
15.56260823732863
 40
15.56260823732863
 40
16.60328335744497
 40
16.60328335744497
 40
17.93824725589253
 40
17.93824725589253
 40
18.93824725589253
 40
18.93824725589253
 40
19.93824725589253
 40
19.93824725589253
 40
20.93824725589254
 40
20.93824725589254
 40
21.93824725589253
 40
21.93824725589253
 40
22.93824725589253
 40
22.93824725589253
 40
22.93824725589253
 10
4342.203259463498
 20
2273.959818988348
 30
0.0
 41
1.0
 10
4346.404164295296
 20
2273.959818988348
 30
0.0
 41
1.0
 10
4350.605069127093
 20
2273.959818988348
 30
0.0
 41
1.0
 10
4350.605069127093
 20
2348.519688117885
 30
0.0
 41
1.0
 10
4350.605069127087
 20
2423.079557247425
 30
0.0
 41
1.0
 10
4350.605069127082
 20
2430.573794971202
 30
0.0
 41
0.8378026266285417
 10
4357.4610645798
 20
2433.600166629278
 30
0.0
 41
1.0
 10
4368.274262907169
 20
2438.373325709743
 30
0.0
 41
0.8919427564734989
 10
4368.274041124833
 20
2446.448877158759
 30
0.0
 41
1.0
 10
4368.273819342501
 20
2454.524428607774
 30
0.0
 41
0.8919427564734989
 10
4357.460358813511
 20
2459.29857022721
 30
0.0
 41
1.0
 10
4350.605069127091
 20
2462.325179860411
 30
0.0
 41
0.8378209395075876
 10
4350.605069127093
 20
2469.818868041573
 30
0.0
 41
1.0
 10
4350.605069127093
 20
2505.57956419948
 30
0.0
 41
1.0
 10
4350.605069127093
 20
2541.340260357385
 30
0.0
 41
1.0
 10
4346.404164295296
 20
2541.149361766608
 30
0.0
 41
1.0
 10
4342.203259463498
 20
2540.95846317583
 30
0.0
 41
1.0
 10
4342.203259463498
 20
2520.440687832937
 30
0.0
 41
1.0
 10
4342.203259463501
 20
2499.922912490045
 30
0.0
 41
1.0
 10
4343.669509463499
 20
2499.922912490045
 30
0.0
 41
1.0
 10
4345.1357594635
 20
2499.922912490045
 30
0.0
 41
1.0
 10
4345.1357594635
 20
2498.772912490045
 30
0.0
 41
1.0
 10
4345.1357594635
 20
2497.622912490044
 30
0.0
 41
1.0
 10
4343.669509463499
 20
2497.622912490044
 30
0.0
 41
1.0
 10
4342.203259463501
 20
2497.622912490044
 30
0.0
 41
1.0
 10
4342.203259463498
 20
2480.841356492307
 30
0.0
 41
1.0
 10
4342.203259463498
 20
2464.059800494571
 30
0.0
 41
1.0
 10
4342.203259463498
 20
2454.994563910354
 30
0.0
 41
0.7853379276294377
 10
4351.017879270309
 20
2452.877728539067
 30
0.0
 41
1.0
 10
4360.00216673594
 20
2450.720147394332
 30
0.0
 41
0.8676514033499939
 10
4360.001627755345
 20
2446.451606174067
 30
0.0
 41
1.0
 10
4360.001088774748
 20
2442.183064953804
 30
0.0
 41
0.8676514033499939
 10
4351.016256251113
 20
2440.023973529101
 30
0.0
 41
1.0
 10
4342.2032594635
 20
2437.906174923508
 30
0.0
 41
0.7853828535345323
 10
4342.203259463501
 20
2428.842291467058
 30
0.0
 41
1.0
 10
4342.203259463498
 20
2369.704358449824
 30
0.0
 41
1.0
 10
4342.203259463498
 20
2310.56642543259
 30
0.0
 41
1.0
 10
4343.669509463499
 20
2310.56642543259
 30
0.0
 41
1.0
 10
4345.1357594635
 20
2310.56642543259
 30
0.0
 41
1.0
 10
4345.1357594635
 20
2309.416425432591
 30
0.0
 41
1.0
 10
4345.1357594635
 20
2308.26642543259
 30
0.0
 41
1.0
 10
4343.669509463499
 20
2308.26642543259
 30
0.0
 41
1.0
 10
4342.203259463501
 20
2308.26642543259
 30
0.0
 41
1.0
 10
4342.203259463498
 20
2291.11312221047
 30
0.0
 41
1.0
 10
4342.203259463498
 20
2273.959818988348
 30
0.0
 41
1.0
  0
SPLINE
  5
19E
330
1F
100
AcDbEntity
  8
0
 62
     5
420
      255
100
AcDbSpline
210
0.0
220
0.0
230
1.0
 70
    15
 71
     2
 72
    48
 73
    45
 74
     0
 42
0.000000001
 43
0.0000000001
 40
0.0
 40
0.0
 40
0.0
 40
1.0
 40
1.0
 40
2.0
 40
2.0
 40
3.155100623312943
 40
3.155100623312943
 40
4.093445578313537
 40
4.093445578313537
 40
5.031790533314134
 40
5.031790533314134
 40
6.186824071472289
 40
6.186824071472289
 40
7.186824071472289
 40
7.186824071472289
 40
8.186824071472289
 40
8.186824071472289
 40
9.186824071472287
 40
9.186824071472287
 40
10.18682407147229
 40
10.18682407147229
 40
11.18682407147229
 40
11.18682407147229
 40
12.18682407147229
 40
12.18682407147229
 40
13.18682407147229
 40
13.18682407147229
 40
14.52193311721569
 40
14.52193311721569
 40
15.56260823733204
 40
15.56260823733204
 40
16.60328335744839
 40
16.60328335744839
 40
17.93824725589594
 40
17.93824725589594
 40
18.93824725589594
 40
18.93824725589594
 40
19.93824725589594
 40
19.93824725589594
 40
20.93824725589595
 40
20.93824725589595
 40
21.93824725589594
 40
21.93824725589594
 40
22.93824725589594
 40
22.93824725589594
 40
22.93824725589594
 10
4366.33021009307
 20
2273.959818988348
 30
0.0
 41
1.0
 10
4370.531114924865
 20
2273.959818988348
 30
0.0
 41
1.0
 10
4374.732019756662
 20
2273.959818988348
 30
0.0
 41
1.0
 10
4374.732019756662
 20
2349.703516153208
 30
0.0
 41
1.0
 10
4374.732019756661
 20
2425.447213318066
 30
0.0
 41
1.0
 10
4374.732019756661
 20
2432.941451041836
 30
0.0
 41
0.83780262662879
 10
4381.588015209383
 20
2435.967822699888
 30
0.0
 41
1.0
 10
4392.401213536749
 20
2440.740981780357
 30
0.0
 41
0.8919427564734514
 10
4392.400991754405
 20
2448.816533229376
 30
0.0
 41
1.0
 10
4392.400769972059
 20
2456.892084678393
 30
0.0
 41
0.8919427564734514
 10
4381.587309443076
 20
2461.666226297849
 30
0.0
 41
1.0
 10
4374.732019756623
 20
2464.692835931054
 30
0.0
 41
0.8378209395065223
 10
4374.732019756662
 20
2472.186524112248
 30
0.0
 41
1.0
 10
4374.732019756662
 20
2507.677917627133
 30
0.0
 41
1.0
 10
4374.732019756662
 20
2543.169311142016
 30
0.0
 41
1.0
 10
4370.531114924865
 20
2542.97841255124
 30
0.0
 41
1.0
 10
4366.33021009307
 20
2542.787513960464
 30
0.0
 41
1.0
 10
4366.33021009307
 20
2521.355213225255
 30
0.0
 41
1.0
 10
4366.33021009307
 20
2499.922912490045
 30
0.0
 41
1.0
 10
4367.79646009307
 20
2499.922912490045
 30
0.0
 41
1.0
 10
4369.26271009307
 20
2499.922912490045
 30
0.0
 41
1.0
 10
4369.26271009307
 20
2498.772912490046
 30
0.0
 41
1.0
 10
4369.26271009307
 20
2497.622912490044
 30
0.0
 41
1.0
 10
4367.79646009307
 20
2497.622912490044
 30
0.0
 41
1.0
 10
4366.33021009307
 20
2497.622912490044
 30
0.0
 41
1.0
 10
4366.33021009307
 20
2482.025184527612
 30
0.0
 41
1.0
 10
4366.33021009307
 20
2466.427456565176
 30
0.0
 41
1.0
 10
4366.33021009307
 20
2457.36221998096
 30
0.0
 41
0.7853379276294377
 10
4375.144829899883
 20
2455.245384609673
 30
0.0
 41
1.0
 10
4384.129117365513
 20
2453.087803464935
 30
0.0
 41
0.8676514033499939
 10
4384.128578384914
 20
2448.819262244672
 30
0.0
 41
1.0
 10
4384.128039404318
 20
2444.550721024408
 30
0.0
 41
0.8676514033499939
 10
4375.143206880682
 20
2442.391629599705
 30
0.0
 41
1.0
 10
4366.330210093071
 20
2440.273830994112
 30
0.0
 41
0.7853828535345323
 10
4366.330210093072
 20
2431.209947537663
 30
0.0
 41
1.0
 10
4366.33021009307
 20
2370.888186485126
 30
0.0
 41
1.0
 10
4366.330210093067
 20
2310.566425432591
 30
0.0
 41
1.0
 10
4367.79646009307
 20
2310.566425432591
 30
0.0
 41
1.0
 10
4369.26271009307
 20
2310.566425432591
 30
0.0
 41
1.0
 10
4369.26271009307
 20
2309.416425432591
 30
0.0
 41
1.0
 10
4369.26271009307
 20
2308.266425432591
 30
0.0
 41
1.0
 10
4367.79646009307
 20
2308.266425432591
 30
0.0
 41
1.0
 10
4366.33021009307
 20
2308.266425432591
 30
0.0
 41
1.0
 10
4366.33021009307
 20
2291.11312221047
 30
0.0
 41
1.0
 10
4366.33021009307
 20
2273.959818988348
 30
0.0
 41
1.0
  0
SPLINE
  5
19F
330
1F
100
AcDbEntity
  8
0
 62
     5
420
      255
100
AcDbSpline
210
0.0
220
0.0
230
1.0
 70
    15
 71
     2
 72
    48
 73
    45
 74
     0
 42
0.000000001
 43
0.0000000001
 40
0.0
 40
0.0
 40
0.0
 40
1.0
 40
1.0
 40
2.0
 40
2.0
 40
3.155100623312941
 40
3.155100623312941
 40
4.093445578313033
 40
4.093445578313033
 40
5.031790533313123
 40
5.031790533313123
 40
6.186824071467378
 40
6.186824071467378
 40
7.186824071467378
 40
7.186824071467378
 40
8.186824071467377
 40
8.186824071467377
 40
9.186824071467377
 40
9.186824071467377
 40
10.18682407146737
 40
10.18682407146737
 40
11.18682407146738
 40
11.18682407146738
 40
12.18682407146738
 40
12.18682407146738
 40
13.18682407146738
 40
13.18682407146738
 40
14.52193311721169
 40
14.52193311721169
 40
15.56260823733006
 40
15.56260823733006
 40
16.60328335744842
 40
16.60328335744842
 40
17.93824725589598
 40
17.93824725589598
 40
18.93824725589598
 40
18.93824725589598
 40
19.93824725589598
 40
19.93824725589598
 40
20.93824725589598
 40
20.93824725589598
 40
21.93824725589598
 40
21.93824725589598
 40
22.93824725589598
 40
22.93824725589598
 40
22.93824725589598
 10
4390.45716072264
 20
2273.959818988349
 30
0.0
 41
1.0
 10
4394.658065554436
 20
2273.959818988349
 30
0.0
 41
1.0
 10
4398.858970386234
 20
2273.959818988349
 30
0.0
 41
1.0
 10
4398.858970386234
 20
2350.887344188511
 30
0.0
 41
1.0
 10
4398.858970386236
 20
2427.814869388667
 30
0.0
 41
1.0
 10
4398.858970386237
 20
2435.309107112436
 30
0.0
 41
0.83780262662879
 10
4405.714965838955
 20
2438.33547877049
 30
0.0
 41
1.0
 10
4416.528164166313
 20
2443.108637850957
 30
0.0
 41
0.8919427564735656
 10
4416.527942383974
 20
2451.184189299971
 30
0.0
 41
1.0
 10
4416.527720601635
 20
2459.259740748983
 30
0.0
 41
0.8919427564735656
 10
4405.714260072655
 20
2464.033882368418
 30
0.0
 41
1.0
 10
4398.858970386235
 20
2467.060492001619
 30
0.0
 41
0.8378209395075876
 10
4398.858970386234
 20
2474.554180182781
 30
0.0
 41
1.0
 10
4398.858970386234
 20
2509.776271054716
 30
0.0
 41
1.0
 10
4398.858970386234
 20
2544.99836192665
 30
0.0
 41
1.0
 10
4394.658065554436
 20
2544.807463335873
 30
0.0
 41
1.0
 10
4390.45716072264
 20
2544.616564745097
 30
0.0
 41
1.0
 10
4390.45716072264
 20
2522.269738617572
 30
0.0
 41
1.0
 10
4390.457160722641
 20
2499.922912490045
 30
0.0
 41
1.0
 10
4391.923410722639
 20
2499.922912490045
 30
0.0
 41
1.0
 10
4393.389660722639
 20
2499.922912490045
 30
0.0
 41
1.0
 10
4393.389660722639
 20
2498.772912490046
 30
0.0
 41
1.0
 10
4393.389660722639
 20
2497.622912490046
 30
0.0
 41
1.0
 10
4391.923410722639
 20
2497.622912490046
 30
0.0
 41
1.0
 10
4390.457160722641
 20
2497.622912490046
 30
0.0
 41
1.0
 10
4390.45716072264
 20
2483.209012562922
 30
0.0
 41
1.0
 10
4390.45716072264
 20
2468.795112635798
 30
0.0
 41
1.0
 10
4390.457160722624
 20
2459.729876051574
 30
0.0
 41
0.7853379276291566
 10
4399.271780529446
 20
2457.613040680285
 30
0.0
 41
1.0
 10
4408.256067995067
 20
2455.455459535559
 30
0.0
 41
0.8676514033494918
 10
4408.255529014485
 20
2451.186918315285
 30
0.0
 41
1.0
 10
4408.254990033902
 20
2446.91837709501
 30
0.0
 41
0.8676514033494918
 10
4399.27015751024
 20
2444.759285670305
 30
0.0
 41
1.0
 10
4390.45716072264
 20
2442.641487064715
 30
0.0
 41
0.7853828535345323
 10
4390.457160722638
 20
2433.577603608267
 30
0.0
 41
1.0
 10
4390.45716072264
 20
2372.072014520429
 30
0.0
 41
1.0
 10
4390.45716072264
 20
2310.566425432591
 30
0.0
 41
1.0
 10
4391.923410722639
 20
2310.566425432591
 30
0.0
 41
1.0
 10
4393.389660722639
 20
2310.566425432591
 30
0.0
 41
1.0
 10
4393.389660722639
 20
2309.416425432591
 30
0.0
 41
1.0
 10
4393.389660722639
 20
2308.266425432591
 30
0.0
 41
1.0
 10
4391.923410722639
 20
2308.266425432591
 30
0.0
 41
1.0
 10
4390.457160722641
 20
2308.266425432591
 30
0.0
 41
1.0
 10
4390.45716072264
 20
2291.11312221047
 30
0.0
 41
1.0
 10
4390.45716072264
 20
2273.959818988349
 30
0.0
 41
1.0
  0
SPLINE
  5
1A0
330
1F
100
AcDbEntity
  8
0
 62
     5
420
      255
100
AcDbSpline
210
0.0
220
0.0
230
1.0
 70
    15
 71
     2
 72
    48
 73
    45
 74
     0
 42
0.000000001
 43
0.0000000001
 40
0.0
 40
0.0
 40
0.0
 40
1.0
 40
1.0
 40
2.0
 40
2.0
 40
3.155100623312943
 40
3.155100623312943
 40
4.093445578313058
 40
4.093445578313058
 40
5.031790533313174
 40
5.031790533313174
 40
6.186824071467428
 40
6.186824071467428
 40
7.186824071467428
 40
7.186824071467428
 40
8.186824071467427
 40
8.186824071467427
 40
9.186824071467427
 40
9.186824071467427
 40
10.18682407146743
 40
10.18682407146743
 40
11.18682407146743
 40
11.18682407146743
 40
12.18682407146743
 40
12.18682407146743
 40
13.18682407146743
 40
13.18682407146743
 40
14.52193311721083
 40
14.52193311721083
 40
15.56260823732906
 40
15.56260823732906
 40
16.6032833574473
 40
16.6032833574473
 40
17.93824725589486
 40
17.93824725589486
 40
18.93824725589485
 40
18.93824725589485
 40
19.93824725589486
 40
19.93824725589486
 40
20.93824725589486
 40
20.93824725589486
 40
21.93824725589486
 40
21.93824725589486
 40
22.93824725589486
 40
22.93824725589486
 40
22.93824725589486
 10
4414.58411135221
 20
2273.959818988349
 30
0.0
 41
1.0
 10
4418.785016184005
 20
2273.959818988349
 30
0.0
 41
1.0
 10
4422.985921015802
 20
2273.959818988349
 30
0.0
 41
1.0
 10
4422.985921015802
 20
2352.071172223811
 30
0.0
 41
1.0
 10
4422.985921015805
 20
2430.182525459273
 30
0.0
 41
1.0
 10
4422.985921015806
 20
2437.676763183044
 30
0.0
 41
0.83780262662879
 10
4429.841916468524
 20
2440.703134841095
 30
0.0
 41
1.0
 10
4440.655114795883
 20
2445.476293921562
 30
0.0
 41
0.8919427564735599
 10
4440.654893013544
 20
2453.551845370574
 30
0.0
 41
1.0
 10
4440.654671231205
 20
2461.627396819587
 30
0.0
 41
0.8919427564735599
 10
4429.841210702218
 20
2466.40153843902
 30
0.0
 41
1.0
 10
4422.985921015798
 20
2469.428148072219
 30
0.0
 41
0.8378209395075876
 10
4422.985921015802
 20
2476.921836253386
 30
0.0
 41
1.0
 10
4422.985921015802
 20
2511.874624482334
 30
0.0
 41
1.0
 10
4422.985921015802
 20
2546.827412711282
 30
0.0
 41
1.0
 10
4418.785016184005
 20
2546.636514120507
 30
0.0
 41
1.0
 10
4414.58411135221
 20
2546.445615529731
 30
0.0
 41
1.0
 10
4414.58411135221
 20
2523.184264009888
 30
0.0
 41
1.0
 10
4414.58411135221
 20
2499.922912490045
 30
0.0
 41
1.0
 10
4416.05036135221
 20
2499.922912490045
 30
0.0
 41
1.0
 10
4417.516611352211
 20
2499.922912490045
 30
0.0
 41
1.0
 10
4417.516611352211
 20
2498.772912490046
 30
0.0
 41
1.0
 10
4417.516611352211
 20
2497.622912490046
 30
0.0
 41
1.0
 10
4416.05036135221
 20
2497.622912490046
 30
0.0
 41
1.0
 10
4414.58411135221
 20
2497.622912490046
 30
0.0
 41
1.0
 10
4414.58411135221
 20
2484.392840598216
 30
0.0
 41
1.0
 10
4414.58411135221
 20
2471.162768706387
 30
0.0
 41
1.0
 10
4414.584111352207
 20
2462.097532122168
 30
0.0
 41
0.7853379276294377
 10
4423.398731159021
 20
2459.980696750881
 30
0.0
 41
1.0
 10
4432.383018624639
 20
2457.82311560616
 30
0.0
 41
0.867651403349525
 10
4432.382479644056
 20
2453.554574385888
 30
0.0
 41
1.0
 10
4432.381940663469
 20
2449.286033165614
 30
0.0
 41
0.867651403349525
 10
4423.39710813981
 20
2447.12694174091
 30
0.0
 41
1.0
 10
4414.58411135221
 20
2445.009143135319
 30
0.0
 41
0.7853828535345323
 10
4414.58411135221
 20
2435.945259678869
 30
0.0
 41
1.0
 10
4414.58411135221
 20
2373.25584255573
 30
0.0
 41
1.0
 10
4414.58411135221
 20
2310.566425432591
 30
0.0
 41
1.0
 10
4416.05036135221
 20
2310.566425432591
 30
0.0
 41
1.0
 10
4417.516611352211
 20
2310.566425432591
 30
0.0
 41
1.0
 10
4417.516611352211
 20
2309.416425432592
 30
0.0
 41
1.0
 10
4417.516611352211
 20
2308.266425432593
 30
0.0
 41
1.0
 10
4416.05036135221
 20
2308.266425432593
 30
0.0
 41
1.0
 10
4414.58411135221
 20
2308.266425432593
 30
0.0
 41
1.0
 10
4414.58411135221
 20
2291.113122210472
 30
0.0
 41
1.0
 10
4414.58411135221
 20
2273.959818988349
 30
0.0
 41
1.0
  0
SPLINE
  5
1A1
330
1F
100
AcDbEntity
  8
0
 62
     5
420
      255
100
AcDbSpline
210
0.0
220
0.0
230
1.0
 70
    15
 71
     2
 72
    48
 73
    45
 74
     0
 42
0.000000001
 43
0.0000000001
 40
0.0
 40
0.0
 40
0.0
 40
1.0
 40
1.0
 40
2.0
 40
2.0
 40
3.334963898449378
 40
3.334963898449378
 40
4.375639018568011
 40
4.375639018568011
 40
5.416314138686646
 40
5.416314138686646
 40
6.751423184430048
 40
6.751423184430048
 40
7.751423184430048
 40
7.751423184430048
 40
8.751423184430047
 40
8.751423184430047
 40
9.75142318443005
 40
9.75142318443005
 40
10.75142318443005
 40
10.75142318443005
 40
11.75142318443005
 40
11.75142318443005
 40
12.75142318443005
 40
12.75142318443005
 40
13.75142318443005
 40
13.75142318443005
 40
14.9064567225873
 40
14.9064567225873
 40
15.84480167758783
 40
15.84480167758783
 40
16.78314663258836
 40
16.78314663258836
 40
17.93824725590263
 40
17.93824725590263
 40
18.93824725590263
 40
18.93824725590263
 40
19.93824725590263
 40
19.93824725590263
 40
20.93824725590263
 40
20.93824725590263
 40
21.93824725590263
 40
21.93824725590263
 40
22.93824725590263
 40
22.93824725590263
 40
22.93824725590263
 10
4441.64356198178
 20
2310.566425432593
 30
0.0
 41
1.0
 10
4440.177311981781
 20
2310.566425432593
 30
0.0
 41
1.0
 10
4438.711061981779
 20
2310.566425432593
 30
0.0
 41
1.0
 10
4438.711061981779
 20
2374.439670591005
 30
0.0
 41
1.0
 10
4438.711061981766
 20
2438.312915749423
 30
0.0
 41
1.0
 10
4438.71106198175
 20
2447.376799205891
 30
0.0
 41
0.7853828535339693
 10
4447.524058769365
 20
2449.49459781151
 30
0.0
 41
1.0
 10
4456.508891293034
 20
2451.653689236213
 30
0.0
 41
0.8676514033494251
 10
4456.509430273624
 20
2455.922230456487
 30
0.0
 41
1.0
 10
4456.509969254216
 20
2460.190771676761
 30
0.0
 41
0.8676514033494251
 10
4447.525681788595
 20
2462.348352821481
 30
0.0
 41
1.0
 10
4438.71106198178
 20
2464.465188192768
 30
0.0
 41
0.7853379276294377
 10
4438.711061981779
 20
2473.530424776985
 30
0.0
 41
1.0
 10
4438.711061981779
 20
2485.576668633516
 30
0.0
 41
1.0
 10
4438.711061981781
 20
2497.622912490046
 30
0.0
 41
1.0
 10
4440.177311981781
 20
2497.622912490046
 30
0.0
 41
1.0
 10
4441.64356198178
 20
2497.622912490046
 30
0.0
 41
1.0
 10
4441.64356198178
 20
2498.772912490046
 30
0.0
 41
1.0
 10
4441.64356198178
 20
2499.922912490045
 30
0.0
 41
1.0
 10
4440.177311981781
 20
2499.922912490045
 30
0.0
 41
1.0
 10
4438.711061981781
 20
2499.922912490045
 30
0.0
 41
1.0
 10
4438.711061981779
 20
2524.098789402204
 30
0.0
 41
1.0
 10
4438.711061981779
 20
2548.274666314363
 30
0.0
 41
1.0
 10
4442.911966813576
 20
2548.46556490514
 30
0.0
 41
1.0
 10
4447.112871645372
 20
2548.656463495917
 30
0.0
 41
1.0
 10
4447.112871645372
 20
2513.972977909976
 30
0.0
 41
1.0
 10
4447.112871645372
 20
2479.289492324037
 30
0.0
 41
1.0
 10
4447.112871645344
 20
2471.795804142846
 30
0.0
 41
0.8378209395067706
 10
4453.968161331792
 20
2468.769194509643
 30
0.0
 41
1.0
 10
4464.781621860772
 20
2463.9950528902
 30
0.0
 41
0.8919427564734655
 10
4464.781843643114
 20
2455.919501441182
 30
0.0
 41
1.0
 10
4464.782065425454
 20
2447.843949992166
 30
0.0
 41
0.8919427564734655
 10
4453.968867098089
 20
2443.070790911697
 30
0.0
 41
1.0
 10
4447.112871645358
 20
2440.044419253644
 30
0.0
 41
0.8378026266284274
 10
4447.112871645363
 20
2432.550181529862
 30
0.0
 41
1.0
 10
4447.112871645372
 20
2353.255000259107
 30
0.0
 41
1.0
 10
4447.112871645372
 20
2273.95981898835
 30
0.0
 41
1.0
 10
4442.911966813576
 20
2273.95981898835
 30
0.0
 41
1.0
 10
4438.711061981779
 20
2273.95981898835
 30
0.0
 41
1.0
 10
4438.711061981779
 20
2291.113122210472
 30
0.0
 41
1.0
 10
4438.711061981779
 20
2308.266425432593
 30
0.0
 41
1.0
 10
4440.177311981781
 20
2308.266425432593
 30
0.0
 41
1.0
 10
4441.64356198178
 20
2308.266425432593
 30
0.0
 41
1.0
 10
4441.64356198178
 20
2309.416425432592
 30
0.0
 41
1.0
 10
4441.64356198178
 20
2310.566425432593
 30
0.0
 41
1.0
  0
SPLINE
  5
1A2
330
1F
100
AcDbEntity
  8
0
 62
     5
420
      255
100
AcDbSpline
210
0.0
220
0.0
230
1.0
 70
    15
 71
     2
 72
    48
 73
    45
 74
     0
 42
0.000000001
 43
0.0000000001
 40
0.0
 40
0.0
 40
0.0
 40
1.0
 40
1.0
 40
2.0
 40
2.0
 40
3.33496389844756
 40
3.33496389844756
 40
4.375639018564299
 40
4.375639018564299
 40
5.416314138681038
 40
5.416314138681038
 40
6.751423184423643
 40
6.751423184423643
 40
7.751423184423643
 40
7.751423184423643
 40
8.751423184423645
 40
8.751423184423645
 40
9.751423184423645
 40
9.751423184423645
 40
10.75142318442364
 40
10.75142318442364
 40
11.75142318442364
 40
11.75142318442364
 40
12.75142318442364
 40
12.75142318442364
 40
13.75142318442364
 40
13.75142318442364
 40
14.90645672257998
 40
14.90645672257998
 40
15.8448016775801
 40
15.8448016775801
 40
16.78314663258023
 40
16.78314663258023
 40
17.93824725589317
 40
17.93824725589317
 40
18.93824725589317
 40
18.93824725589317
 40
19.93824725589317
 40
19.93824725589317
 40
20.93824725589317
 40
20.93824725589317
 40
21.93824725589317
 40
21.93824725589317
 40
22.93824725589317
 40
22.93824725589317
 40
22.93824725589317
 10
4465.770512611349
 20
2310.566425432593
 30
0.0
 41
1.0
 10
4464.30426261135
 20
2310.566425432593
 30
0.0
 41
1.0
 10
4462.838012611348
 20
2310.566425432593
 30
0.0
 41
1.0
 10
4462.838012611348
 20
2375.623498626334
 30
0.0
 41
1.0
 10
4462.838012611352
 20
2440.680571820077
 30
0.0
 41
1.0
 10
4462.838012611352
 20
2449.744455276527
 30
0.0
 41
0.7853828535345323
 10
4471.651009398951
 20
2451.862253882117
 30
0.0
 41
1.0
 10
4480.635841922595
 20
2454.021345306819
 30
0.0
 41
0.8676514033498962
 10
4480.636380903195
 20
2458.289886527085
 30
0.0
 41
1.0
 10
4480.636919883796
 20
2462.55842774735
 30
0.0
 41
0.8676514033498962
 10
4471.652632418161
 20
2464.716008892092
 30
0.0
 41
1.0
 10
4462.838012611353
 20
2466.832844263385
 30
0.0
 41
0.7853379276296844
 10
4462.838012611348
 20
2475.898080847589
 30
0.0
 41
1.0
 10
4462.838012611348
 20
2486.760496668817
 30
0.0
 41
1.0
 10
4462.838012611352
 20
2497.622912490046
 30
0.0
 41
1.0
 10
4464.30426261135
 20
2497.622912490046
 30
0.0
 41
1.0
 10
4465.770512611349
 20
2497.622912490046
 30
0.0
 41
1.0
 10
4465.770512611349
 20
2498.772912490047
 30
0.0
 41
1.0
 10
4465.770512611349
 20
2499.922912490046
 30
0.0
 41
1.0
 10
4464.30426261135
 20
2499.922912490046
 30
0.0
 41
1.0
 10
4462.838012611352
 20
2499.922912490046
 30
0.0
 41
1.0
 10
4462.838012611348
 20
2525.013314794521
 30
0.0
 41
1.0
 10
4462.838012611348
 20
2550.103717098995
 30
0.0
 41
1.0
 10
4467.038917443146
 20
2550.294615689773
 30
0.0
 41
1.0
 10
4471.239822274942
 20
2550.485514280549
 30
0.0
 41
1.0
 10
4471.239822274942
 20
2516.071331337574
 30
0.0
 41
1.0
 10
4471.239822274942
 20
2481.657148394598
 30
0.0
 41
1.0
 10
4471.239822274931
 20
2474.163460213422
 30
0.0
 41
0.8378209395070187
 10
4478.095111961368
 20
2471.136850580221
 30
0.0
 41
1.0
 10
4488.908572490345
 20
2466.362708960796
 30
0.0
 41
0.8919427564735585
 10
4488.908794272683
 20
2458.287157511783
 30
0.0
 41
1.0
 10
4488.909016055023
 20
2450.21160606277
 30
0.0
 41
0.8919427564735585
 10
4478.095817727665
 20
2445.438446982303
 30
0.0
 41
1.0
 10
4471.23982227494
 20
2442.412075324253
 30
0.0
 41
0.83780262662879
 10
4471.239822274939
 20
2434.917837600484
 30
0.0
 41
1.0
 10
4471.239822274942
 20
2354.438828294416
 30
0.0
 41
1.0
 10
4471.239822274942
 20
2273.95981898835
 30
0.0
 41
1.0
 10
4467.038917443146
 20
2273.95981898835
 30
0.0
 41
1.0
 10
4462.838012611348
 20
2273.95981898835
 30
0.0
 41
1.0
 10
4462.838012611348
 20
2291.113122210472
 30
0.0
 41
1.0
 10
4462.838012611348
 20
2308.266425432594
 30
0.0
 41
1.0
 10
4464.30426261135
 20
2308.266425432594
 30
0.0
 41
1.0
 10
4465.770512611349
 20
2308.266425432594
 30
0.0
 41
1.0
 10
4465.770512611349
 20
2309.416425432592
 30
0.0
 41
1.0
 10
4465.770512611349
 20
2310.566425432593
 30
0.0
 41
1.0
  0
SPLINE
  5
1A3
330
1F
100
AcDbEntity
  8
0
 62
     5
420
      255
100
AcDbSpline
210
0.0
220
0.0
230
1.0
 70
    15
 71
     2
 72
    48
 73
    45
 74
     0
 42
0.000000001
 43
0.0000000001
 40
0.0
 40
0.0
 40
0.0
 40
1.0
 40
1.0
 40
2.0
 40
2.0
 40
3.334963898448469
 40
3.334963898448469
 40
4.375639018566098
 40
4.375639018566098
 40
5.416314138683728
 40
5.416314138683728
 40
6.751423184428952
 40
6.751423184428952
 40
7.751423184428952
 40
7.751423184428952
 40
8.751423184428951
 40
8.751423184428951
 40
9.751423184428951
 40
9.751423184428951
 40
10.75142318442895
 40
10.75142318442895
 40
11.75142318442895
 40
11.75142318442895
 40
12.75142318442895
 40
12.75142318442895
 40
13.75142318442895
 40
13.75142318442895
 40
14.90645672258395
 40
14.90645672258395
 40
15.84480167758394
 40
15.84480167758394
 40
16.78314663258393
 40
16.78314663258393
 40
17.93824725589687
 40
17.93824725589687
 40
18.93824725589687
 40
18.93824725589687
 40
19.93824725589687
 40
19.93824725589687
 40
20.93824725589688
 40
20.93824725589688
 40
21.93824725589688
 40
21.93824725589688
 40
22.93824725589688
 40
22.93824725589688
 40
22.93824725589688
 10
4489.884968299135
 20
2310.566425432593
 30
0.0
 41
1.0
 10
4488.418718299137
 20
2310.566425432593
 30
0.0
 41
1.0
 10
4486.952468299135
 20
2310.566425432593
 30
0.0
 41
1.0
 10
4486.952468299135
 20
2376.807326661628
 30
0.0
 41
1.0
 10
4486.952468299131
 20
2443.048227890665
 30
0.0
 41
1.0
 10
4486.952468299123
 20
2452.112111347124
 30
0.0
 41
0.7853828535342509
 10
4495.765465086756
 20
2454.229909952726
 30
0.0
 41
1.0
 10
4504.750297610402
 20
2456.389001377435
 30
0.0
 41
0.867651403349675
 10
4504.75083659098
 20
2460.657542597703
 30
0.0
 41
1.0
 10
4504.751375571562
 20
2464.926083817974
 30
0.0
 41
0.867651403349675
 10
4495.767088105939
 20
2467.083664962715
 30
0.0
 41
1.0
 10
4486.952468299109
 20
2469.200500334006
 30
0.0
 41
0.7853379276288747
 10
4486.952468299135
 20
2478.265736918239
 30
0.0
 41
1.0
 10
4486.952468299135
 20
2487.944324704143
 30
0.0
 41
1.0
 10
4486.952468299136
 20
2497.622912490047
 30
0.0
 41
1.0
 10
4488.418718299137
 20
2497.622912490047
 30
0.0
 41
1.0
 10
4489.884968299135
 20
2497.622912490047
 30
0.0
 41
1.0
 10
4489.884968299135
 20
2498.772912490047
 30
0.0
 41
1.0
 10
4489.884968299135
 20
2499.922912490046
 30
0.0
 41
1.0
 10
4488.418718299137
 20
2499.922912490046
 30
0.0
 41
1.0
 10
4486.952468299136
 20
2499.922912490046
 30
0.0
 41
1.0
 10
4486.952468299135
 20
2525.927840186839
 30
0.0
 41
1.0
 10
4486.952468299135
 20
2551.932767883629
 30
0.0
 41
1.0
 10
4491.153373130933
 20
2552.123666474405
 30
0.0
 41
1.0
 10
4495.354277962729
 20
2552.314565065183
 30
0.0
 41
1.0
 10
4495.354277962729
 20
2518.169684765189
 30
0.0
 41
1.0
 10
4495.354277962729
 20
2484.024804465196
 30
0.0
 41
1.0
 10
4495.354277962729
 20
2476.531116284026
 30
0.0
 41
0.8378209395073843
 10
4502.209567649154
 20
2473.504506650828
 30
0.0
 41
1.0
 10
4513.023028178131
 20
2468.7303650314
 30
0.0
 41
0.891942756473588
 10
4513.023249960471
 20
2460.654813582388
 30
0.0
 41
1.0
 10
4513.02347174281
 20
2452.579262133376
 30
0.0
 41
0.891942756473588
 10
4502.210273415455
 20
2447.806103052908
 30
0.0
 41
1.0
 10
4495.354277962725
 20
2444.779731394854
 30
0.0
 41
0.83780262662879
 10
4495.354277962723
 20
2437.285493671084
 30
0.0
 41
1.0
 10
4495.354277962729
 20
2355.622656329715
 30
0.0
 41
1.0
 10
4495.354277962729
 20
2273.95981898835
 30
0.0
 41
1.0
 10
4491.153373130933
 20
2273.95981898835
 30
0.0
 41
1.0
 10
4486.952468299135
 20
2273.95981898835
 30
0.0
 41
1.0
 10
4486.952468299135
 20
2291.113122210472
 30
0.0
 41
1.0
 10
4486.952468299135
 20
2308.266425432593
 30
0.0
 41
1.0
 10
4488.418718299137
 20
2308.266425432594
 30
0.0
 41
1.0
 10
4489.884968299135
 20
2308.266425432594
 30
0.0
 41
1.0
 10
4489.884968299135
 20
2309.416425432593
 30
0.0
 41
1.0
 10
4489.884968299135
 20
2310.566425432593
 30
0.0
 41
1.0
  0
SPLINE
  5
1A4
330
1F
100
AcDbEntity
  8
0
 62
     5
420
      255
100
AcDbSpline
210
0.0
220
0.0
230
1.0
 70
    15
 71
     2
 72
    48
 73
    45
 74
     0
 42
0.000000001
 43
0.0000000001
 40
0.0
 40
0.0
 40
0.0
 40
1.0
 40
1.0
 40
2.0
 40
2.0
 40
3.33496389844756
 40
3.33496389844756
 40
4.375639018563903
 40
4.375639018563903
 40
5.416314138680249
 40
5.416314138680249
 40
6.751423184423653
 40
6.751423184423653
 40
7.751423184423653
 40
7.751423184423653
 40
8.751423184423656
 40
8.751423184423656
 40
9.751423184423656
 40
9.751423184423656
 40
10.75142318442365
 40
10.75142318442365
 40
11.75142318442365
 40
11.75142318442365
 40
12.75142318442365
 40
12.75142318442365
 40
13.75142318442365
 40
13.75142318442365
 40
14.90645672257791
 40
14.90645672257791
 40
15.844801677578
 40
15.844801677578
 40
16.78314663257809
 40
16.78314663257809
 40
17.93824725589103
 40
17.93824725589103
 40
18.93824725589103
 40
18.93824725589103
 40
19.93824725589103
 40
19.93824725589103
 40
20.93824725589104
 40
20.93824725589104
 40
21.93824725589104
 40
21.93824725589104
 40
22.93824725589104
 40
22.93824725589104
 40
22.93824725589104
 10
4514.011918928706
 20
2310.566425432593
 30
0.0
 41
1.0
 10
4512.545668928707
 20
2310.566425432593
 30
0.0
 41
1.0
 10
4511.079418928706
 20
2310.566425432593
 30
0.0
 41
1.0
 10
4511.079418928706
 20
2377.99115469694
 30
0.0
 41
1.0
 10
4511.079418928706
 20
2445.415883961287
 30
0.0
 41
1.0
 10
4511.079418928706
 20
2454.479767417739
 30
0.0
 41
0.7853828535345323
 10
4519.892415716321
 20
2456.597566023329
 30
0.0
 41
1.0
 10
4528.877248239956
 20
2458.756657448033
 30
0.0
 41
0.8676514033499939
 10
4528.87778722055
 20
2463.025198668296
 30
0.0
 41
1.0
 10
4528.878326201148
 20
2467.29373988856
 30
0.0
 41
0.8676514033499939
 10
4519.894038735517
 20
2469.451321033291
 30
0.0
 41
1.0
 10
4511.079418928705
 20
2471.568156404578
 30
0.0
 41
0.7853379276294377
 10
4511.079418928706
 20
2480.633392988798
 30
0.0
 41
1.0
 10
4511.079418928706
 20
2489.128152739422
 30
0.0
 41
1.0
 10
4511.079418928707
 20
2497.622912490048
 30
0.0
 41
1.0
 10
4512.545668928707
 20
2497.622912490048
 30
0.0
 41
1.0
 10
4514.011918928706
 20
2497.622912490048
 30
0.0
 41
1.0
 10
4514.011918928706
 20
2498.772912490048
 30
0.0
 41
1.0
 10
4514.011918928706
 20
2499.922912490046
 30
0.0
 41
1.0
 10
4512.545668928707
 20
2499.922912490046
 30
0.0
 41
1.0
 10
4511.079418928707
 20
2499.922912490046
 30
0.0
 41
1.0
 10
4511.079418928706
 20
2526.842365579155
 30
0.0
 41
1.0
 10
4511.079418928706
 20
2553.761818668263
 30
0.0
 41
1.0
 10
4515.280323760503
 20
2553.952717259039
 30
0.0
 41
1.0
 10
4519.481228592299
 20
2554.143615849815
 30
0.0
 41
1.0
 10
4519.481228592299
 20
2520.268038192808
 30
0.0
 41
1.0
 10
4519.481228592299
 20
2486.392460535802
 30
0.0
 41
1.0
 10
4519.481228592303
 20
2478.89877235464
 30
0.0
 41
0.8378209395075876
 10
4526.336518278723
 20
2475.872162721441
 30
0.0
 41
1.0
 10
4537.149978807703
 20
2471.098021102004
 30
0.0
 41
0.8919427564735656
 10
4537.15020059004
 20
2463.022469652991
 30
0.0
 41
1.0
 10
4537.150422372377
 20
2454.946918203978
 30
0.0
 41
0.8919427564735656
 10
4526.33722404502
 20
2450.173759123511
 30
0.0
 41
1.0
 10
4519.481228592296
 20
2447.14738746546
 30
0.0
 41
0.83780262662879
 10
4519.481228592296
 20
2439.653149741691
 30
0.0
 41
1.0
 10
4519.481228592299
 20
2356.806484365021
 30
0.0
 41
1.0
 10
4519.481228592299
 20
2273.959818988351
 30
0.0
 41
1.0
 10
4515.280323760503
 20
2273.959818988351
 30
0.0
 41
1.0
 10
4511.079418928706
 20
2273.959818988351
 30
0.0
 41
1.0
 10
4511.079418928706
 20
2291.113122210473
 30
0.0
 41
1.0
 10
4511.079418928706
 20
2308.266425432594
 30
0.0
 41
1.0
 10
4512.545668928707
 20
2308.266425432594
 30
0.0
 41
1.0
 10
4514.011918928706
 20
2308.266425432594
 30
0.0
 41
1.0
 10
4514.011918928706
 20
2309.416425432593
 30
0.0
 41
1.0
 10
4514.011918928706
 20
2310.566425432593
 30
0.0
 41
1.0
  0
SPLINE
  5
1A5
330
1F
100
AcDbEntity
  8
0
 62
     5
420
      255
100
AcDbSpline
210
0.0
220
0.0
230
1.0
 70
    15
 71
     2
 72
    48
 73
    45
 74
     0
 42
0.000000001
 43
0.0000000001
 40
0.0
 40
0.0
 40
0.0
 40
1.0
 40
1.0
 40
2.0
 40
2.0
 40
3.33496389844756
 40
3.33496389844756
 40
4.37563901856569
 40
4.37563901856569
 40
5.416314138683826
 40
5.416314138683826
 40
6.751423184427231
 40
6.751423184427231
 40
7.751423184427231
 40
7.751423184427231
 40
8.751423184427232
 40
8.751423184427232
 40
9.751423184427233
 40
9.751423184427233
 40
10.75142318442723
 40
10.75142318442723
 40
11.75142318442723
 40
11.75142318442723
 40
12.75142318442723
 40
12.75142318442723
 40
13.75142318442723
 40
13.75142318442723
 40
14.90645672258265
 40
14.90645672258265
 40
15.84480167758275
 40
15.84480167758275
 40
16.78314663258284
 40
16.78314663258284
 40
17.93824725589578
 40
17.93824725589578
 40
18.93824725589578
 40
18.93824725589578
 40
19.93824725589578
 40
19.93824725589578
 40
20.93824725589578
 40
20.93824725589578
 40
21.93824725589578
 40
21.93824725589578
 40
22.93824725589578
 40
22.93824725589578
 40
22.93824725589578
 10
4538.138869558276
 20
2310.566425432593
 30
0.0
 41
1.0
 10
4536.672619558276
 20
2310.566425432593
 30
0.0
 41
1.0
 10
4535.206369558276
 20
2310.566425432593
 30
0.0
 41
1.0
 10
4535.206369558276
 20
2379.174982732241
 30
0.0
 41
1.0
 10
4535.206369558277
 20
2447.783540031889
 30
0.0
 41
1.0
 10
4535.206369558278
 20
2456.847423488339
 30
0.0
 41
0.7853828535345323
 10
4544.019366345877
 20
2458.965222093929
 30
0.0
 41
1.0
 10
4553.004198869535
 20
2461.124313518634
 30
0.0
 41
0.8676514033495495
 10
4553.004737850122
 20
2465.392854738907
 30
0.0
 41
1.0
 10
4553.005276830709
 20
2469.66139595918
 30
0.0
 41
0.8676514033495495
 10
4544.020989365089
 20
2471.818977103894
 30
0.0
 41
1.0
 10
4535.206369558272
 20
2473.935812475181
 30
0.0
 41
0.7853379276294377
 10
4535.206369558276
 20
2483.0010490594
 30
0.0
 41
1.0
 10
4535.206369558276
 20
2490.311980774723
 30
0.0
 41
1.0
 10
4535.206369558277
 20
2497.622912490048
 30
0.0
 41
1.0
 10
4536.672619558276
 20
2497.622912490048
 30
0.0
 41
1.0
 10
4538.138869558276
 20
2497.622912490048
 30
0.0
 41
1.0
 10
4538.138869558276
 20
2498.772912490048
 30
0.0
 41
1.0
 10
4538.138869558276
 20
2499.922912490047
 30
0.0
 41
1.0
 10
4536.672619558276
 20
2499.922912490047
 30
0.0
 41
1.0
 10
4535.206369558277
 20
2499.922912490047
 30
0.0
 41
1.0
 10
4535.206369558276
 20
2527.756890971471
 30
0.0
 41
1.0
 10
4535.206369558276
 20
2555.590869452896
 30
0.0
 41
1.0
 10
4539.407274390073
 20
2555.781768043671
 30
0.0
 41
1.0
 10
4543.60817922187
 20
2555.972666634448
 30
0.0
 41
1.0
 10
4543.60817922187
 20
2522.366391620427
 30
0.0
 41
1.0
 10
4543.60817922187
 20
2488.760116606405
 30
0.0
 41
1.0
 10
4543.60817922186
 20
2481.266428425227
 30
0.0
 41
0.8378209395072671
 10
4550.463468908293
 20
2478.239818792031
 30
0.0
 41
1.0
 10
4561.276929437273
 20
2473.465677172607
 30
0.0
 41
0.8919427564735656
 10
4561.27715121961
 20
2465.390125723594
 30
0.0
 41
1.0
 10
4561.277373001948
 20
2457.314574274582
 30
0.0
 41
0.8919427564735656
 10
4550.46417467459
 20
2452.541415194114
 30
0.0
 41
1.0
 10
4543.608179221865
 20
2449.515043536067
 30
0.0
 41
0.83780262662879
 10
4543.608179221863
 20
2442.020805812298
 30
0.0
 41
1.0
 10
4543.60817922187
 20
2357.990312400323
 30
0.0
 41
1.0
 10
4543.60817922187
 20
2273.959818988351
 30
0.0
 41
1.0
 10
4539.407274390073
 20
2273.959818988351
 30
0.0
 41
1.0
 10
4535.206369558276
 20
2273.959818988351
 30
0.0
 41
1.0
 10
4535.206369558276
 20
2291.113122210473
 30
0.0
 41
1.0
 10
4535.206369558276
 20
2308.266425432594
 30
0.0
 41
1.0
 10
4536.672619558276
 20
2308.266425432594
 30
0.0
 41
1.0
 10
4538.138869558276
 20
2308.266425432594
 30
0.0
 41
1.0
 10
4538.138869558276
 20
2309.416425432594
 30
0.0
 41
1.0
 10
4538.138869558276
 20
2310.566425432593
 30
0.0
 41
1.0
  0
SPLINE
  5
1A6
330
1F
100
AcDbEntity
  8
0
 62
     5
420
      255
100
AcDbSpline
210
0.0
220
0.0
230
1.0
 70
    15
 71
     2
 72
    48
 73
    45
 74
     0
 42
0.000000001
 43
0.0000000001
 40
0.0
 40
0.0
 40
0.0
 40
1.0
 40
1.0
 40
2.0
 40
2.0
 40
3.33496389844756
 40
3.33496389844756
 40
4.375639018565792
 40
4.375639018565792
 40
5.416314138684025
 40
5.416314138684025
 40
6.751423184427427
 40
6.751423184427427
 40
7.751423184427427
 40
7.751423184427427
 40
8.751423184427429
 40
8.751423184427429
 40
9.751423184427429
 40
9.751423184427429
 40
10.75142318442743
 40
10.75142318442743
 40
11.75142318442743
 40
11.75142318442743
 40
12.75142318442743
 40
12.75142318442743
 40
13.75142318442743
 40
13.75142318442743
 40
14.90645672258168
 40
14.90645672258168
 40
15.84480167758175
 40
15.84480167758175
 40
16.78314663258182
 40
16.78314663258182
 40
17.93824725589476
 40
17.93824725589476
 40
18.93824725589476
 40
18.93824725589476
 40
19.93824725589476
 40
19.93824725589476
 40
20.93824725589477
 40
20.93824725589477
 40
21.93824725589477
 40
21.93824725589477
 40
22.93824725589477
 40
22.93824725589477
 40
22.93824725589477
 10
4562.265820187848
 20
2310.566425432595
 30
0.0
 41
1.0
 10
4560.799570187847
 20
2310.566425432595
 30
0.0
 41
1.0
 10
4559.333320187845
 20
2310.566425432596
 30
0.0
 41
1.0
 10
4559.333320187848
 20
2380.358810767543
 30
0.0
 41
1.0
 10
4559.333320187848
 20
2450.151196102495
 30
0.0
 41
1.0
 10
4559.333320187849
 20
2459.215079558944
 30
0.0
 41
0.7853828535345323
 10
4568.146316975447
 20
2461.332878164534
 30
0.0
 41
1.0
 10
4577.131149499108
 20
2463.491969589238
 30
0.0
 41
0.867651403349525
 10
4577.131688479693
 20
2467.760510809512
 30
0.0
 41
1.0
 10
4577.132227460277
 20
2472.029052029784
 30
0.0
 41
0.867651403349525
 10
4568.147939994656
 20
2474.186633174503
 30
0.0
 41
1.0
 10
4559.33332018784
 20
2476.30346854579
 30
0.0
 41
0.7853379276294377
 10
4559.333320187848
 20
2485.368705130011
 30
0.0
 41
1.0
 10
4559.333320187848
 20
2491.495808810029
 30
0.0
 41
1.0
 10
4559.333320187848
 20
2497.622912490048
 30
0.0
 41
1.0
 10
4560.799570187847
 20
2497.622912490048
 30
0.0
 41
1.0
 10
4562.265820187848
 20
2497.622912490048
 30
0.0
 41
1.0
 10
4562.265820187848
 20
2498.772912490048
 30
0.0
 41
1.0
 10
4562.265820187848
 20
2499.922912490047
 30
0.0
 41
1.0
 10
4560.799570187847
 20
2499.922912490047
 30
0.0
 41
1.0
 10
4559.333320187848
 20
2499.922912490047
 30
0.0
 41
1.0
 10
4559.333320187848
 20
2528.671416363787
 30
0.0
 41
1.0
 10
4559.333320187848
 20
2557.419920237529
 30
0.0
 41
1.0
 10
4563.534225019643
 20
2557.610818828305
 30
0.0
 41
1.0
 10
4567.735129851439
 20
2557.801717419082
 30
0.0
 41
1.0
 10
4567.735129851439
 20
2524.464745048045
 30
0.0
 41
1.0
 10
4567.735129851439
 20
2491.12777267701
 30
0.0
 41
1.0
 10
4567.735129851438
 20
2483.634084495847
 30
0.0
 41
0.8378209395075876
 10
4574.59041953786
 20
2480.607474862646
 30
0.0
 41
1.0
 10
4585.403880066843
 20
2475.833333243211
 30
0.0
 41
0.8919427564735704
 10
4585.404101849181
 20
2467.757781794198
 30
0.0
 41
1.0
 10
4585.40432363152
 20
2459.682230345185
 30
0.0
 41
0.8919427564735704
 10
4574.591125304162
 20
2454.90907126472
 30
0.0
 41
1.0
 10
4567.735129851439
 20
2451.882699606669
 30
0.0
 41
0.83780262662879
 10
4567.735129851439
 20
2444.388461882899
 30
0.0
 41
1.0
 10
4567.735129851439
 20
2359.174140435625
 30
0.0
 41
1.0
 10
4567.735129851439
 20
2273.959818988353
 30
0.0
 41
1.0
 10
4563.534225019643
 20
2273.959818988353
 30
0.0
 41
1.0
 10
4559.333320187848
 20
2273.959818988353
 30
0.0
 41
1.0
 10
4559.333320187845
 20
2291.113122210473
 30
0.0
 41
1.0
 10
4559.333320187845
 20
2308.266425432595
 30
0.0
 41
1.0
 10
4560.799570187847
 20
2308.266425432595
 30
0.0
 41
1.0
 10
4562.265820187848
 20
2308.266425432595
 30
0.0
 41
1.0
 10
4562.265820187848
 20
2309.416425432594
 30
0.0
 41
1.0
 10
4562.265820187848
 20
2310.566425432595
 30
0.0
 41
1.0
  0
SPLINE
  5
1A7
330
1F
100
AcDbEntity
  8
0
 62
     5
420
      255
100
AcDbSpline
210
0.0
220
0.0
230
1.0
 70
    15
 71
     2
 72
    48
 73
    45
 74
     0
 42
0.000000001
 43
0.0000000001
 40
0.0
 40
0.0
 40
0.0
 40
1.0
 40
1.0
 40
2.0
 40
2.0
 40
3.334963898448457
 40
3.334963898448457
 40
4.375639018566268
 40
4.375639018566268
 40
5.416314138684074
 40
5.416314138684074
 40
6.75142318442748
 40
6.75142318442748
 40
7.75142318442748
 40
7.75142318442748
 40
8.75142318442748
 40
8.75142318442748
 40
9.75142318442748
 40
9.75142318442748
 40
10.75142318442748
 40
10.75142318442748
 40
11.75142318442748
 40
11.75142318442748
 40
12.75142318442748
 40
12.75142318442748
 40
13.75142318442748
 40
13.75142318442748
 40
14.90645672258173
 40
14.90645672258173
 40
15.8448016775819
 40
15.8448016775819
 40
16.78314663258207
 40
16.78314663258207
 40
17.93824725589502
 40
17.93824725589502
 40
18.93824725589501
 40
18.93824725589501
 40
19.93824725589502
 40
19.93824725589502
 40
20.93824725589502
 40
20.93824725589502
 40
21.93824725589502
 40
21.93824725589502
 40
22.93824725589502
 40
22.93824725589502
 40
22.93824725589502
 10
4586.380275875635
 20
2310.566425432595
 30
0.0
 41
1.0
 10
4584.914025875635
 20
2310.566425432595
 30
0.0
 41
1.0
 10
4583.447775875636
 20
2310.566425432595
 30
0.0
 41
1.0
 10
4583.447775875634
 20
2381.542638802846
 30
0.0
 41
1.0
 10
4583.447775875629
 20
2452.518852173103
 30
0.0
 41
1.0
 10
4583.447775875629
 20
2461.582735629561
 30
0.0
 41
0.7853828535342535
 10
4592.26077266325
 20
2463.700534235141
 30
0.0
 41
1.0
 10
4601.245605186901
 20
2465.859625659847
 30
0.0
 41
0.8676514033496303
 10
4601.246144167479
 20
2470.128166880119
 30
0.0
 41
1.0
 10
4601.246683148064
 20
2474.396708100389
 30
0.0
 41
0.8676514033496303
 10
4592.262395682451
 20
2476.554289245109
 30
0.0
 41
1.0
 10
4583.447775875637
 20
2478.671124616396
 30
0.0
 41
0.7853379276294377
 10
4583.447775875636
 20
2487.736361200609
 30
0.0
 41
1.0
 10
4583.447775875636
 20
2492.679636845329
 30
0.0
 41
1.0
 10
4583.447775875636
 20
2497.622912490048
 30
0.0
 41
1.0
 10
4584.914025875635
 20
2497.622912490048
 30
0.0
 41
1.0
 10
4586.380275875635
 20
2497.622912490048
 30
0.0
 41
1.0
 10
4586.380275875635
 20
2498.772912490049
 30
0.0
 41
1.0
 10
4586.380275875635
 20
2499.922912490048
 30
0.0
 41
1.0
 10
4584.914025875635
 20
2499.922912490048
 30
0.0
 41
1.0
 10
4583.447775875636
 20
2499.922912490048
 30
0.0
 41
1.0
 10
4583.447775875634
 20
2529.585941756105
 30
0.0
 41
1.0
 10
4583.447775875634
 20
2559.248971022161
 30
0.0
 41
1.0
 10
4587.648680707433
 20
2559.439869612937
 30
0.0
 41
1.0
 10
4591.849585539228
 20
2559.630768203715
 30
0.0
 41
1.0
 10
4591.849585539228
 20
2526.56309847567
 30
0.0
 41
1.0
 10
4591.849585539228
 20
2493.495428747625
 30
0.0
 41
1.0
 10
4591.849585539225
 20
2486.001740566456
 30
0.0
 41
0.8378209395075876
 10
4598.704875225646
 20
2482.975130933255
 30
0.0
 41
1.0
 10
4609.518335754629
 20
2478.200989313819
 30
0.0
 41
0.8919427564735475
 10
4609.518557536969
 20
2470.125437864805
 30
0.0
 41
1.0
 10
4609.518779319309
 20
2462.04988641579
 30
0.0
 41
0.8919427564735475
 10
4598.70558099195
 20
2457.276727335323
 30
0.0
 41
1.0
 10
4591.849585539224
 20
2454.250355677274
 30
0.0
 41
0.83780262662879
 10
4591.849585539224
 20
2446.756117953504
 30
0.0
 41
1.0
 10
4591.849585539228
 20
2360.357968470927
 30
0.0
 41
1.0
 10
4591.849585539228
 20
2273.959818988353
 30
0.0
 41
1.0
 10
4587.648680707433
 20
2273.959818988353
 30
0.0
 41
1.0
 10
4583.447775875634
 20
2273.959818988353
 30
0.0
 41
1.0
 10
4583.447775875636
 20
2291.113122210473
 30
0.0
 41
1.0
 10
4583.447775875638
 20
2308.266425432595
 30
0.0
 41
1.0
 10
4584.914025875635
 20
2308.266425432595
 30
0.0
 41
1.0
 10
4586.380275875635
 20
2308.266425432595
 30
0.0
 41
1.0
 10
4586.380275875635
 20
2309.416425432594
 30
0.0
 41
1.0
 10
4586.380275875635
 20
2310.566425432595
 30
0.0
 41
1.0
  0
SPLINE
  5
1A8
330
1F
100
AcDbEntity
  8
0
 62
     5
420
      255
100
AcDbSpline
210
0.0
220
0.0
230
1.0
 70
    15
 71
     2
 72
    48
 73
    45
 74
     0
 42
0.000000001
 43
0.0000000001
 40
0.0
 40
0.0
 40
0.0
 40
1.0
 40
1.0
 40
2.0
 40
2.0
 40
3.33496389844756
 40
3.33496389844756
 40
4.375639018565891
 40
4.375639018565891
 40
5.416314138684223
 40
5.416314138684223
 40
6.751423184428535
 40
6.751423184428535
 40
7.751423184428535
 40
7.751423184428535
 40
8.751423184428536
 40
8.751423184428536
 40
9.751423184428537
 40
9.751423184428537
 40
10.75142318442853
 40
10.75142318442853
 40
11.75142318442853
 40
11.75142318442853
 40
12.75142318442853
 40
12.75142318442853
 40
13.75142318442853
 40
13.75142318442853
 40
14.90645672258487
 40
14.90645672258487
 40
15.8448016775852
 40
15.8448016775852
 40
16.78314663258554
 40
16.78314663258554
 40
17.93824725589848
 40
17.93824725589848
 40
18.93824725589848
 40
18.93824725589848
 40
19.93824725589848
 40
19.93824725589848
 40
20.93824725589848
 40
20.93824725589848
 40
21.93824725589848
 40
21.93824725589848
 40
22.93824725589848
 40
22.93824725589848
 40
22.93824725589848
 10
4610.507226505204
 20
2310.566425432596
 30
0.0
 41
1.0
 10
4609.040976505207
 20
2310.566425432596
 30
0.0
 41
1.0
 10
4607.574726505204
 20
2310.566425432596
 30
0.0
 41
1.0
 10
4607.574726505204
 20
2382.726466838148
 30
0.0
 41
1.0
 10
4607.574726505198
 20
2454.886508243703
 30
0.0
 41
1.0
 10
4607.574726505198
 20
2463.950391700154
 30
0.0
 41
0.7853828535345323
 10
4616.387723292807
 20
2466.068190305741
 30
0.0
 41
1.0
 10
4625.372555816467
 20
2468.227281730447
 30
0.0
 41
0.8676514033495006
 10
4625.373094797049
 20
2472.495822950719
 30
0.0
 41
1.0
 10
4625.373633777635
 20
2476.764364170994
 30
0.0
 41
0.8676514033495006
 10
4616.389346312014
 20
2478.921945315719
 30
0.0
 41
1.0
 10
4607.574726505193
 20
2481.038780687008
 30
0.0
 41
0.7853379276291566
 10
4607.574726505204
 20
2490.104017271231
 30
0.0
 41
1.0
 10
4607.574726505204
 20
2493.863464880639
 30
0.0
 41
1.0
 10
4607.574726505205
 20
2497.622912490049
 30
0.0
 41
1.0
 10
4609.040976505207
 20
2497.622912490049
 30
0.0
 41
1.0
 10
4610.507226505204
 20
2497.622912490049
 30
0.0
 41
1.0
 10
4610.507226505204
 20
2498.772912490049
 30
0.0
 41
1.0
 10
4610.507226505204
 20
2499.922912490048
 30
0.0
 41
1.0
 10
4609.040976505207
 20
2499.922912490048
 30
0.0
 41
1.0
 10
4607.574726505205
 20
2499.922912490048
 30
0.0
 41
1.0
 10
4607.574726505204
 20
2530.500467148421
 30
0.0
 41
1.0
 10
4607.574726505204
 20
2561.078021806795
 30
0.0
 41
1.0
 10
4611.775631337
 20
2561.268920397571
 30
0.0
 41
1.0
 10
4615.976536168798
 20
2561.459818988348
 30
0.0
 41
1.0
 10
4615.976536168798
 20
2528.661451903297
 30
0.0
 41
1.0
 10
4615.976536168798
 20
2495.863084818248
 30
0.0
 41
1.0
 10
4615.976536168783
 20
2488.369396637066
 30
0.0
 41
0.8378209395070187
 10
4622.831825855222
 20
2485.342787003866
 30
0.0
 41
1.0
 10
4633.645286384197
 20
2480.568645384426
 30
0.0
 41
0.8919427564735108
 10
4633.645508166539
 20
2472.493093935411
 30
0.0
 41
1.0
 10
4633.64572994888
 20
2464.417542486394
 30
0.0
 41
0.8919427564735108
 10
4622.832531621519
 20
2459.644383405926
 30
0.0
 41
1.0
 10
4615.976536168798
 20
2456.618011747877
 30
0.0
 41
0.83780262662879
 10
4615.976536168798
 20
2449.123774024108
 30
0.0
 41
1.0
 10
4615.976536168798
 20
2361.541796506229
 30
0.0
 41
1.0
 10
4615.976536168798
 20
2273.959818988354
 30
0.0
 41
1.0
 10
4611.775631337001
 20
2273.959818988354
 30
0.0
 41
1.0
 10
4607.574726505204
 20
2273.959818988354
 30
0.0
 41
1.0
 10
4607.574726505204
 20
2291.113122210474
 30
0.0
 41
1.0
 10
4607.574726505204
 20
2308.266425432595
 30
0.0
 41
1.0
 10
4609.040976505207
 20
2308.266425432595
 30
0.0
 41
1.0
 10
4610.507226505204
 20
2308.266425432595
 30
0.0
 41
1.0
 10
4610.507226505204
 20
2309.416425432596
 30
0.0
 41
1.0
 10
4610.507226505204
 20
2310.566425432596
 30
0.0
 41
1.0
  0
ENDSEC
  0
SECTION
  2
OBJECTS
  0
DICTIONARY
  5
C
330
0
100
AcDbDictionary
281
     1
  3
ACAD_DETAILVIEWSTYLE
350
1EE
  3
ACAD_GROUP
350
D
  3
ACAD_LAYOUT
350
1A
  3
ACAD_MATERIAL
350
43
  3
ACAD_MLEADERSTYLE
350
6B
  3
ACAD_MLINESTYLE
350
17
  3
ACAD_PLOTSETTINGS
350
19
  3
ACAD_PLOTSTYLENAME
350
E
  3
ACAD_SCALELIST
350
47
  3
ACAD_SECTIONVIEWSTYLE
350
1EF
  3
ACAD_TABLESTYLE
350
69
  3
ACAD_VISUALSTYLE
350
2A
  3
ACDB_RECOMPOSE_DATA
350
1EB
  3
AcDbVariableDictionary
350
1AB
  0
DICTIONARY
  5
1A9
330
8
100
AcDbDictionary
280
     1
281
     1
  3
ACAD_XREC_ROUNDTRIP
360
1AA
  0
DICTIONARY
  5
1EE
102
{ACAD_REACTORS
330
C
102
}
330
C
100
AcDbDictionary
281
     1
  0
DICTIONARY
  5
D
102
{ACAD_REACTORS
330
C
102
}
330
C
100
AcDbDictionary
281
     1
  0
DICTIONARY
  5
1A
102
{ACAD_REACTORS
330
C
102
}
330
C
100
AcDbDictionary
281
     1
  3
Layout1
350
1E
  3
Layout2
350
26
  3
Model
350
22
  0
DICTIONARY
  5
43
102
{ACAD_REACTORS
330
C
102
}
330
C
100
AcDbDictionary
281
     1
  3
ByBlock
350
45
  3
ByLayer
350
44
  3
Global
350
46
  0
DICTIONARY
  5
6B
102
{ACAD_REACTORS
330
C
102
}
330
C
100
AcDbDictionary
281
     1
  3
Standard
350
6C
  0
DICTIONARY
  5
17
102
{ACAD_REACTORS
330
C
102
}
330
C
100
AcDbDictionary
281
     1
  3
Standard
350
18
  0
DICTIONARY
  5
19
102
{ACAD_REACTORS
330
C
102
}
330
C
100
AcDbDictionary
281
     1
  0
ACDBDICTIONARYWDFLT
  5
E
102
{ACAD_REACTORS
330
C
102
}
330
C
100
AcDbDictionary
281
     1
  3
Normal
350
F
100
AcDbDictionaryWithDefault
340
F
  0
DICTIONARY
  5
47
102
{ACAD_REACTORS
330
C
102
}
330
C
100
AcDbDictionary
281
     1
  3
A0
350
48
  3
A1
350
49
  3
A2
350
4A
  3
A3
350
4B
  3
A4
350
4C
  3
A5
350
4D
  3
A6
350
4E
  3
A7
350
4F
  3
A8
350
50
  3
A9
350
51
  3
B0
350
52
  3
B1
350
53
  3
B2
350
54
  3
B3
350
55
  3
B4
350
56
  3
B5
350
57
  3
B6
350
58
  3
B7
350
59
  3
B8
350
5A
  3
B9
350
5B
  3
C0
350
5C
  3
C1
350
5D
  3
C2
350
5E
  3
C3
350
5F
  3
C4
350
60
  3
C5
350
61
  3
C6
350
62
  3
C7
350
63
  3
C8
350
64
  3
C9
350
65
  3
D0
350
66
  3
D1
350
67
  3
D2
350
68
  0
DICTIONARY
  5
1EF
102
{ACAD_REACTORS
330
C
102
}
330
C
100
AcDbDictionary
281
     1
  0
DICTIONARY
  5
69
102
{ACAD_REACTORS
330
C
102
}
330
C
100
AcDbDictionary
281
     1
  3
Standard
350
6A
  0
DICTIONARY
  5
2A
102
{ACAD_REACTORS
330
C
102
}
330
C
100
AcDbDictionary
281
     1
  3
2dWireframe
350
2F
  3
Basic
350
32
  3
Brighten
350
36
  3
ColorChange
350
3A
  3
Conceptual
350
34
  3
Dim
350
35
  3
EdgeColorOff
350
3D
  3
Facepattern
350
39
  3
Flat
350
2B
  3
FlatWithEdges
350
2C
  3
Gouraud
350
2D
  3
GouraudWithEdges
350
2E
  3
Hidden
350
31
  3
JitterOff
350
3B
  3
Linepattern
350
38
  3
OverhangOff
350
3C
  3
Realistic
350
33
  3
Shaded
350
42
  3
Shaded with edges
350
41
  3
Shades of Gray
350
3E
  3
Sketchy
350
3F
  3
Thicken
350
37
  3
Wireframe
350
30
  3
X-Ray
350
40
  0
XRECORD
  5
1EB
102
{ACAD_REACTORS
330
C
102
}
330
C
100
AcDbXrecord
280
     1
 90
        1
330
6A
  0
DICTIONARY
  5
1AB
102
{ACAD_REACTORS
330
C
102
}
330
C
100
AcDbDictionary
281
     1
  3
CANNOSCALE
350
1AC
  3
CMLEADERSTYLE
350
1ED
  3
CTABLESTYLE
350
1EC
  3
MSLTSCALE
350
1AD
  3
XCLIPFRAME
350
1AE
  0
XRECORD
  5
1AA
102
{ACAD_REACTORS
330
1A9
102
}
330
1A9
100
AcDbXrecord
280
     1
102
VTR_0.000_0.000_1.000_1.000_VISUALSTYLE
340
2F
102
VTR_0.000_0.000_1.000_1.000_GRIDDISPLAY
 70
     3
102
VTR_0.000_0.000_1.000_1.000_GRIDMAJOR
 70
     5
102
VTR_0.000_0.000_1.000_1.000_DEFAULTLIGHTING
280
     1
102
VTR_0.000_0.000_1.000_1.000_DEFAULTLIGHTINGTYPE
 70
     1
102
VTR_0.000_0.000_1.000_1.000_BRIGHTNESS
141
0.0
102
VTR_0.000_0.000_1.000_1.000_CONTRAST
142
0.0
  0
LAYOUT
  5
1E
102
{ACAD_REACTORS
330
1A
102
}
330
1A
100
AcDbPlotSettings
  1

  2
none_device
  4

  6

 40
0.0
 41
0.0
 42
0.0
 43
0.0
 44
0.0
 45
0.0
 46
0.0
 47
0.0
 48
0.0
 49
0.0
140
0.0
141
0.0
142
1.0
143
1.0
 70
   688
 72
     0
 73
     0
 74
     5
  7

 75
    16
 76
     0
 77
     2
 78
   300
147
1.0
148
0.0
149
0.0
100
AcDbLayout
  1
Layout1
 70
     1
 71
     1
 10
0.0
 20
0.0
 11
12.0
 21
9.0
 12
0.0
 22
0.0
 32
0.0
 14
1.000000000000000E+20
 24
1.000000000000000E+20
 34
1.000000000000000E+20
 15
-1.000000000000000E+20
 25
-1.000000000000000E+20
 35
-1.000000000000000E+20
146
0.0
 13
0.0
 23
0.0
 33
0.0
 16
1.0
 26
0.0
 36
0.0
 17
0.0
 27
1.0
 37
0.0
 76
     0
330
1B
  0
LAYOUT
  5
26
102
{ACAD_REACTORS
330
1A
102
}
330
1A
100
AcDbPlotSettings
  1

  2
none_device
  4

  6

 40
0.0
 41
0.0
 42
0.0
 43
0.0
 44
0.0
 45
0.0
 46
0.0
 47
0.0
 48
0.0
 49
0.0
140
0.0
141
0.0
142
1.0
143
1.0
 70
   688
 72
     0
 73
     0
 74
     5
  7

 75
    16
 76
     0
 77
     2
 78
   300
147
1.0
148
0.0
149
0.0
100
AcDbLayout
  1
Layout2
 70
     1
 71
     2
 10
0.0
 20
0.0
 11
0.0
 21
0.0
 12
0.0
 22
0.0
 32
0.0
 14
0.0
 24
0.0
 34
0.0
 15
0.0
 25
0.0
 35
0.0
146
0.0
 13
0.0
 23
0.0
 33
0.0
 16
1.0
 26
0.0
 36
0.0
 17
0.0
 27
1.0
 37
0.0
 76
     0
330
23
  0
LAYOUT
  5
22
102
{ACAD_REACTORS
330
1A
102
}
330
1A
100
AcDbPlotSettings
  1

  2
none_device
  4
Letter_(8.50_x_11.00_Inches)
  6

 40
6.35
 41
6.35
 42
6.35000508
 43
6.35000508
 44
215.9
 45
279.4
 46
0.0
 47
0.0
 48
0.0
 49
0.0
140
0.0
141
0.0
142
1.0
143
1.0
 70
  1712
 72
     0
 73
     0
 74
     0
  7

 75
     0
 76
     0
 77
     2
 78
   300
147
1.0
148
0.0
149
0.0
100
AcDbLayout
  1
Model
 70
     1
 71
     0
 10
0.0
 20
0.0
 11
12.0
 21
9.0
 12
0.0
 22
0.0
 32
0.0
 14
1.000000000000000E+20
 24
1.000000000000000E+20
 34
1.000000000000000E+20
 15
-1.000000000000000E+20
 25
-1.000000000000000E+20
 35
-1.000000000000000E+20
146
0.0
 13
0.0
 23
0.0
 33
0.0
 16
1.0
 26
0.0
 36
0.0
 17
0.0
 27
1.0
 37
0.0
 76
     0
330
1F
331
29
  0
MATERIAL
  5
45
102
{ACAD_REACTORS
330
43
102
}
102
{ACAD_XDICTIONARY
360
1E1
102
}
330
43
100
AcDbMaterial
  1
ByBlock
  0
MATERIAL
  5
44
102
{ACAD_REACTORS
330
43
102
}
102
{ACAD_XDICTIONARY
360
1DF
102
}
330
43
100
AcDbMaterial
  1
ByLayer
  0
MATERIAL
  5
46
102
{ACAD_REACTORS
330
43
102
}
102
{ACAD_XDICTIONARY
360
1E3
102
}
330
43
100
AcDbMaterial
  1
Global
  0
MLEADERSTYLE
  5
6C
102
{ACAD_REACTORS
330
6B
102
}
102
{ACAD_XDICTIONARY
360
1E9
102
}
330
6B
100
AcDbMLeaderStyle
170
     2
171
     1
172
     0
 90
        2
 40
0.0
 41
0.0
173
     1
 91
-1056964608
340
14
 92
       -2
290
     1
 42
0.09
291
     1
 43
0.36
  3
Standard
341
0
 44
0.18
300

342
11
174
     1
178
     6
175
     1
176
     0
 93
-1056964608
 45
0.18
292
     0
297
     0
 46
0.18
343
0
 94
-1056964608
 47
1.0
 49
1.0
140
1.0
293
     1
141
0.0
294
     1
177
     0
142
1.0
295
     0
296
     0
143
0.125
1001
ACAD_MLEADERVER
1070
     2
  0
MLINESTYLE
  5
18
102
{ACAD_REACTORS
330
17
102
}
330
17
100
AcDbMlineStyle
  2
Standard
 70
     0
  3

 62
   256
 51
90.0
 52
90.0
 71
     2
 49
0.5
 62
   256
  6
BYLAYER
 49
-0.5
 62
   256
  6
BYLAYER
  0
ACDBPLACEHOLDER
  5
F
102
{ACAD_REACTORS
330
E
102
}
330
E
  0
SCALE
  5
48
102
{ACAD_REACTORS
330
47
102
}
330
47
100
AcDbScale
 70
     0
300
1:1
140
1.0
141
1.0
290
     1
  0
SCALE
  5
49
102
{ACAD_REACTORS
330
47
102
}
330
47
100
AcDbScale
 70
     0
300
1:2
140
1.0
141
2.0
290
     0
  0
SCALE
  5
4A
102
{ACAD_REACTORS
330
47
102
}
330
47
100
AcDbScale
 70
     0
300
1:4
140
1.0
141
4.0
290
     0
  0
SCALE
  5
4B
102
{ACAD_REACTORS
330
47
102
}
330
47
100
AcDbScale
 70
     0
300
1:5
140
1.0
141
5.0
290
     0
  0
SCALE
  5
4C
102
{ACAD_REACTORS
330
47
102
}
330
47
100
AcDbScale
 70
     0
300
1:8
140
1.0
141
8.0
290
     0
  0
SCALE
  5
4D
102
{ACAD_REACTORS
330
47
102
}
330
47
100
AcDbScale
 70
     0
300
1:10
140
1.0
141
10.0
290
     0
  0
SCALE
  5
4E
102
{ACAD_REACTORS
330
47
102
}
330
47
100
AcDbScale
 70
     0
300
1:16
140
1.0
141
16.0
290
     0
  0
SCALE
  5
4F
102
{ACAD_REACTORS
330
47
102
}
330
47
100
AcDbScale
 70
     0
300
1:20
140
1.0
141
20.0
290
     0
  0
SCALE
  5
50
102
{ACAD_REACTORS
330
47
102
}
330
47
100
AcDbScale
 70
     0
300
1:30
140
1.0
141
30.0
290
     0
  0
SCALE
  5
51
102
{ACAD_REACTORS
330
47
102
}
330
47
100
AcDbScale
 70
     0
300
1:40
140
1.0
141
40.0
290
     0
  0
SCALE
  5
52
102
{ACAD_REACTORS
330
47
102
}
330
47
100
AcDbScale
 70
     0
300
1:50
140
1.0
141
50.0
290
     0
  0
SCALE
  5
53
102
{ACAD_REACTORS
330
47
102
}
330
47
100
AcDbScale
 70
     0
300
1:100
140
1.0
141
100.0
290
     0
  0
SCALE
  5
54
102
{ACAD_REACTORS
330
47
102
}
330
47
100
AcDbScale
 70
     0
300
2:1
140
2.0
141
1.0
290
     0
  0
SCALE
  5
55
102
{ACAD_REACTORS
330
47
102
}
330
47
100
AcDbScale
 70
     0
300
4:1
140
4.0
141
1.0
290
     0
  0
SCALE
  5
56
102
{ACAD_REACTORS
330
47
102
}
330
47
100
AcDbScale
 70
     0
300
8:1
140
8.0
141
1.0
290
     0
  0
SCALE
  5
57
102
{ACAD_REACTORS
330
47
102
}
330
47
100
AcDbScale
 70
     0
300
10:1
140
10.0
141
1.0
290
     0
  0
SCALE
  5
58
102
{ACAD_REACTORS
330
47
102
}
330
47
100
AcDbScale
 70
     0
300
100:1
140
100.0
141
1.0
290
     0
  0
SCALE
  5
59
102
{ACAD_REACTORS
330
47
102
}
330
47
100
AcDbScale
 70
     0
300
1/128" = 1'-0"
140
0.0078125
141
12.0
290
     0
  0
SCALE
  5
5A
102
{ACAD_REACTORS
330
47
102
}
330
47
100
AcDbScale
 70
     0
300
1/64" = 1'-0"
140
0.015625
141
12.0
290
     0
  0
SCALE
  5
5B
102
{ACAD_REACTORS
330
47
102
}
330
47
100
AcDbScale
 70
     0
300
1/32" = 1'-0"
140
0.03125
141
12.0
290
     0
  0
SCALE
  5
5C
102
{ACAD_REACTORS
330
47
102
}
330
47
100
AcDbScale
 70
     0
300
1/16" = 1'-0"
140
0.0625
141
12.0
290
     0
  0
SCALE
  5
5D
102
{ACAD_REACTORS
330
47
102
}
330
47
100
AcDbScale
 70
     0
300
3/32" = 1'-0"
140
0.09375
141
12.0
290
     0
  0
SCALE
  5
5E
102
{ACAD_REACTORS
330
47
102
}
330
47
100
AcDbScale
 70
     0
300
1/8" = 1'-0"
140
0.125
141
12.0
290
     0
  0
SCALE
  5
5F
102
{ACAD_REACTORS
330
47
102
}
330
47
100
AcDbScale
 70
     0
300
3/16" = 1'-0"
140
0.1875
141
12.0
290
     0
  0
SCALE
  5
60
102
{ACAD_REACTORS
330
47
102
}
330
47
100
AcDbScale
 70
     0
300
1/4" = 1'-0"
140
0.25
141
12.0
290
     0
  0
SCALE
  5
61
102
{ACAD_REACTORS
330
47
102
}
330
47
100
AcDbScale
 70
     0
300
3/8" = 1'-0"
140
0.375
141
12.0
290
     0
  0
SCALE
  5
62
102
{ACAD_REACTORS
330
47
102
}
330
47
100
AcDbScale
 70
     0
300
1/2" = 1'-0"
140
0.5
141
12.0
290
     0
  0
SCALE
  5
63
102
{ACAD_REACTORS
330
47
102
}
330
47
100
AcDbScale
 70
     0
300
3/4" = 1'-0"
140
0.75
141
12.0
290
     0
  0
SCALE
  5
64
102
{ACAD_REACTORS
330
47
102
}
330
47
100
AcDbScale
 70
     0
300
1" = 1'-0"
140
1.0
141
12.0
290
     0
  0
SCALE
  5
65
102
{ACAD_REACTORS
330
47
102
}
330
47
100
AcDbScale
 70
     0
300
1-1/2" = 1'-0"
140
1.5
141
12.0
290
     0
  0
SCALE
  5
66
102
{ACAD_REACTORS
330
47
102
}
330
47
100
AcDbScale
 70
     0
300
3" = 1'-0"
140
3.0
141
12.0
290
     0
  0
SCALE
  5
67
102
{ACAD_REACTORS
330
47
102
}
330
47
100
AcDbScale
 70
     0
300
6" = 1'-0"
140
6.0
141
12.0
290
     0
  0
SCALE
  5
68
102
{ACAD_REACTORS
330
47
102
}
330
47
100
AcDbScale
 70
     0
300
1'-0" = 1'-0"
140
12.0
141
12.0
290
     0
  0
TABLESTYLE
  5
6A
102
{ACAD_REACTORS
330
69
102
}
102
{ACAD_XDICTIONARY
360
1E5
102
}
330
69
100
AcDbTableStyle
  3
Standard
 70
     0
 71
     0
 40
0.06
 41
0.06
280
     0
281
     0
  7
Standard
140
0.18
170
     2
 62
     0
 63
   257
283
     0
274
    -2
284
     1
 64
     0
275
    -2
285
     1
 65
     0
276
    -2
286
     1
 66
     0
277
    -2
287
     1
 67
     0
278
    -2
288
     1
 68
     0
279
    -2
289
     1
 69
     0
  7
Standard
140
0.25
170
     5
 62
     0
 63
   257
283
     0
274
    -2
284
     1
 64
     0
275
    -2
285
     1
 65
     0
276
    -2
286
     1
 66
     0
277
    -2
287
     1
 67
     0
278
    -2
288
     1
 68
     0
279
    -2
289
     1
 69
     0
  7
Standard
140
0.18
170
     5
 62
     0
 63
   257
283
     0
274
    -2
284
     1
 64
     0
275
    -2
285
     1
 65
     0
276
    -2
286
     1
 66
     0
277
    -2
287
     1
 67
     0
278
    -2
288
     1
 68
     0
279
    -2
289
     1
 69
     0
  0
VISUALSTYLE
  5
2F
102
{ACAD_REACTORS
330
2A
102
}
102
{ACAD_XDICTIONARY
360
1B7
102
}
330
2A
100
AcDbVisualStyle
  2
2dWireframe
 70
     4
 71
     0
 72
     2
 73
     0
 90
        0
 40
0.6
 41
30.0
 62
     5
 63
     7
421
 16777215
 74
     1
 91
        4
 64
     7
 65
   257
 75
     1
175
     1
 42
1.0
 92
        0
 66
   257
 43
1.0
 76
     1
 77
     6
 78
     2
 67
     7
 79
     5
170
     0
171
     0
290
     0
174
     0
 93
        1
 44
0.0
173
     0
291
     0
 45
0.0
1001
ACAD
1000
AcDbSavedByObjectVersion
1070
     0
  0
VISUALSTYLE
  5
32
102
{ACAD_REACTORS
330
2A
102
}
102
{ACAD_XDICTIONARY
360
1BD
102
}
330
2A
100
AcDbVisualStyle
  2
Basic
 70
     7
 71
     1
 72
     0
 73
     1
 90
        0
 40
0.6
 41
30.0
 62
     5
 63
     7
421
 16777215
 74
     0
 91
        4
 64
     7
 65
   257
 75
     1
175
     1
 42
1.0
 92
        8
 66
     7
 43
1.0
 76
     1
 77
     6
 78
     2
 67
     7
 79
     5
170
     0
171
     0
290
     0
174
     0
 93
        1
 44
0.0
173
     0
291
     1
 45
0.0
1001
ACAD
1000
AcDbSavedByObjectVersion
1070
     0
  0
VISUALSTYLE
  5
36
102
{ACAD_REACTORS
330
2A
102
}
102
{ACAD_XDICTIONARY
360
1C5
102
}
330
2A
100
AcDbVisualStyle
  2
Brighten
 70
    12
 71
     2
 72
     2
 73
     0
 90
        0
 40
0.6
 41
30.0
 62
     5
 63
     7
421
 16777215
 74
     1
 91
        4
 64
     7
 65
   257
 75
     1
175
     1
 42
1.0
 92
        8
 66
     7
 43
1.0
 76
     1
 77
     6
 78
     2
 67
     7
 79
     5
170
     0
171
     0
290
     0
174
     0
 93
        1
 44
50.0
173
     0
291
     1
 45
0.0
1001
ACAD
1000
AcDbSavedByObjectVersion
1070
     0
  0
VISUALSTYLE
  5
3A
102
{ACAD_REACTORS
330
2A
102
}
102
{ACAD_XDICTIONARY
360
1CD
102
}
330
2A
100
AcDbVisualStyle
  2
ColorChange
 70
    16
 71
     2
 72
     2
 73
     3
 90
        0
 40
0.6
 41
30.0
 62
     5
 63
     8
421
  8421504
 74
     1
 91
        4
 64
     7
 65
   257
 75
     1
175
     1
 42
1.0
 92
        8
 66
     8
424
  8421504
 43
1.0
 76
     1
 77
     6
 78
     2
 67
     7
 79
     5
170
     0
171
     0
290
     0
174
     0
 93
        1
 44
0.0
173
     0
291
     1
 45
0.0
1001
ACAD
1000
AcDbSavedByObjectVersion
1070
     0
  0
VISUALSTYLE
  5
34
102
{ACAD_REACTORS
330
2A
102
}
102
{ACAD_XDICTIONARY
360
1C1
102
}
330
2A
100
AcDbVisualStyle
  2
Conceptual
 70
     9
 71
     3
 72
     2
 73
     0
 90
        0
 40
0.6
 41
30.0
 62
     5
 63
     7
421
 16777215
 74
     2
 91
        2
 64
     7
 65
   257
 75
     1
175
     1
 42
179.0
 92
        8
 66
     7
 43
1.0
 76
     1
 77
     6
 78
     2
 67
     7
 79
     3
170
     0
171
     0
290
     0
174
     0
 93
        1
 44
0.0
173
     0
291
     0
 45
0.0
1001
ACAD
1000
AcDbSavedByObjectVersion
1070
     0
  0
VISUALSTYLE
  5
35
102
{ACAD_REACTORS
330
2A
102
}
102
{ACAD_XDICTIONARY
360
1C3
102
}
330
2A
100
AcDbVisualStyle
  2
Dim
 70
    11
 71
     2
 72
     2
 73
     0
 90
        0
 40
0.6
 41
30.0
 62
     5
 63
     7
421
 16777215
 74
     1
 91
        4
 64
     7
 65
   257
 75
     1
175
     1
 42
1.0
 92
        8
 66
     7
 43
1.0
 76
     1
 77
     6
 78
     2
 67
     7
 79
     5
170
     0
171
     0
290
     0
174
     0
 93
        1
 44
-50.0
173
     0
291
     1
 45
0.0
1001
ACAD
1000
AcDbSavedByObjectVersion
1070
     0
  0
VISUALSTYLE
  5
3D
102
{ACAD_REACTORS
330
2A
102
}
102
{ACAD_XDICTIONARY
360
1D3
102
}
330
2A
100
AcDbVisualStyle
  2
EdgeColorOff
 70
    22
 71
     2
 72
     2
 73
     0
 90
        0
 40
0.6
 41
30.0
 62
     5
 63
     7
421
 16777215
 74
     1
 91
        4
 64
     7
 65
   257
 75
     1
175
     1
 42
1.0
 92
        8
 66
     7
 43
1.0
 76
     1
 77
     6
 78
     2
 67
     7
 79
     5
170
     0
171
     0
290
     0
174
     0
 93
        1
 44
0.0
173
     0
291
     1
 45
0.0
1001
ACAD
1000
AcDbSavedByObjectVersion
1070
     0
  0
VISUALSTYLE
  5
39
102
{ACAD_REACTORS
330
2A
102
}
102
{ACAD_XDICTIONARY
360
1CB
102
}
330
2A
100
AcDbVisualStyle
  2
Facepattern
 70
    15
 71
     2
 72
     2
 73
     0
 90
        0
 40
0.6
 41
30.0
 62
     5
 63
     7
421
 16777215
 74
     1
 91
        4
 64
     7
 65
   257
 75
     1
175
     1
 42
1.0
 92
        8
 66
     7
 43
1.0
 76
     1
 77
     6
 78
     2
 67
     7
 79
     5
170
     0
171
     0
290
     0
174
     0
 93
        1
 44
0.0
173
     0
291
     1
 45
0.0
1001
ACAD
1000
AcDbSavedByObjectVersion
1070
     0
  0
VISUALSTYLE
  5
2B
102
{ACAD_REACTORS
330
2A
102
}
102
{ACAD_XDICTIONARY
360
1AF
102
}
330
2A
100
AcDbVisualStyle
  2
Flat
 70
     0
 71
     2
 72
     1
 73
     1
 90
        2
 40
0.6
 41
30.0
 62
     5
 63
     7
421
 16777215
 74
     0
 91
        0
 64
     7
 65
   257
 75
     1
175
     1
 42
1.0
 92
        8
 66
     7
 43
1.0
 76
     1
 77
     6
 78
     2
 67
     7
 79
     5
170
     0
171
     0
290
     0
174
     0
 93
       13
 44
0.0
173
     0
291
     1
 45
0.0
1001
ACAD
1000
AcDbSavedByObjectVersion
1070
     0
  0
VISUALSTYLE
  5
2C
102
{ACAD_REACTORS
330
2A
102
}
102
{ACAD_XDICTIONARY
360
1B1
102
}
330
2A
100
AcDbVisualStyle
  2
FlatWithEdges
 70
     1
 71
     2
 72
     1
 73
     1
 90
        2
 40
0.6
 41
30.0
 62
     5
 63
     7
421
 16777215
 74
     1
 91
        0
 64
     7
 65
   257
 75
     1
175
     1
 42
1.0
 92
        0
 66
   257
 43
1.0
 76
     1
 77
     6
 78
     2
 67
     7
 79
     5
170
     0
171
     0
290
     0
174
     0
 93
       13
 44
0.0
173
     0
291
     1
 45
0.0
1001
ACAD
1000
AcDbSavedByObjectVersion
1070
     0
  0
VISUALSTYLE
  5
2D
102
{ACAD_REACTORS
330
2A
102
}
102
{ACAD_XDICTIONARY
360
1B3
102
}
330
2A
100
AcDbVisualStyle
  2
Gouraud
 70
     2
 71
     2
 72
     2
 73
     1
 90
        2
 40
0.6
 41
30.0
 62
     5
 63
     7
421
 16777215
 74
     0
 91
        0
 64
     7
 65
   257
 75
     1
175
     1
 42
1.0
 92
        0
 66
     7
 43
1.0
 76
     1
 77
     6
 78
     2
 67
     7
 79
     5
170
     0
171
     0
290
     0
174
     0
 93
       13
 44
0.0
173
     0
291
     1
 45
0.0
1001
ACAD
1000
AcDbSavedByObjectVersion
1070
     0
  0
VISUALSTYLE
  5
2E
102
{ACAD_REACTORS
330
2A
102
}
102
{ACAD_XDICTIONARY
360
1B5
102
}
330
2A
100
AcDbVisualStyle
  2
GouraudWithEdges
 70
     3
 71
     2
 72
     2
 73
     1
 90
        2
 40
0.6
 41
30.0
 62
     5
 63
     7
421
 16777215
 74
     1
 91
        0
 64
     7
 65
   257
 75
     1
175
     1
 42
1.0
 92
        0
 66
   257
 43
1.0
 76
     1
 77
     6
 78
     2
 67
     7
 79
     5
170
     0
171
     0
290
     0
174
     0
 93
       13
 44
0.0
173
     0
291
     1
 45
0.0
1001
ACAD
1000
AcDbSavedByObjectVersion
1070
     0
  0
VISUALSTYLE
  5
31
102
{ACAD_REACTORS
330
2A
102
}
102
{ACAD_XDICTIONARY
360
1BB
102
}
330
2A
100
AcDbVisualStyle
  2
Hidden
 70
     6
 71
     1
 72
     2
 73
     2
 90
        0
 40
0.6
 41
30.0
 62
     5
 63
     7
421
 16777215
 74
     2
 91
        2
 64
     7
 65
   257
 75
     2
175
     1
 42
40.0
 92
        0
 66
   257
 43
1.0
 76
     1
 77
     6
 78
     2
 67
     7
 79
     3
170
     0
171
     0
290
     0
174
     0
 93
        1
 44
0.0
173
     0
291
     0
 45
0.0
1001
ACAD
1000
AcDbSavedByObjectVersion
1070
     0
  0
VISUALSTYLE
  5
3B
102
{ACAD_REACTORS
330
2A
102
}
102
{ACAD_XDICTIONARY
360
1CF
102
}
330
2A
100
AcDbVisualStyle
  2
JitterOff
 70
    20
 71
     2
 72
     2
 73
     0
 90
        0
 40
0.6
 41
30.0
 62
     5
 63
     7
421
 16777215
 74
     1
 91
        4
 64
     7
 65
   257
 75
     1
175
     1
 42
1.0
 92
       10
 66
     7
 43
1.0
 76
     1
 77
     6
 78
     2
 67
     7
 79
     5
170
     0
171
     0
290
     0
174
     0
 93
        1
 44
0.0
173
     0
291
     1
 45
0.0
1001
ACAD
1000
AcDbSavedByObjectVersion
1070
     0
  0
VISUALSTYLE
  5
38
102
{ACAD_REACTORS
330
2A
102
}
102
{ACAD_XDICTIONARY
360
1C9
102
}
330
2A
100
AcDbVisualStyle
  2
Linepattern
 70
    14
 71
     2
 72
     2
 73
     0
 90
        0
 40
0.6
 41
30.0
 62
     5
 63
     7
421
 16777215
 74
     1
 91
        4
 64
     7
 65
   257
 75
     7
175
     7
 42
1.0
 92
        8
 66
     7
 43
1.0
 76
     1
 77
     6
 78
     2
 67
     7
 79
     5
170
     0
171
     0
290
     0
174
     0
 93
        1
 44
0.0
173
     0
291
     1
 45
0.0
1001
ACAD
1000
AcDbSavedByObjectVersion
1070
     0
  0
VISUALSTYLE
  5
3C
102
{ACAD_REACTORS
330
2A
102
}
102
{ACAD_XDICTIONARY
360
1D1
102
}
330
2A
100
AcDbVisualStyle
  2
OverhangOff
 70
    21
 71
     2
 72
     2
 73
     0
 90
        0
 40
0.6
 41
30.0
 62
     5
 63
     7
421
 16777215
 74
     1
 91
        4
 64
     7
 65
   257
 75
     1
175
     1
 42
1.0
 92
        9
 66
     7
 43
1.0
 76
     1
 77
     6
 78
     2
 67
     7
 79
     5
170
     0
171
     0
290
     0
174
     0
 93
        1
 44
0.0
173
     0
291
     1
 45
0.0
1001
ACAD
1000
AcDbSavedByObjectVersion
1070
     0
  0
VISUALSTYLE
  5
33
102
{ACAD_REACTORS
330
2A
102
}
102
{ACAD_XDICTIONARY
360
1BF
102
}
330
2A
100
AcDbVisualStyle
  2
Realistic
 70
     8
 71
     2
 72
     3
 73
     0
 90
        2
 40
0.6
 41
30.0
 62
     5
 63
     7
421
 16777215
 74
     0
 91
        0
 64
     7
 65
   257
 75
     1
175
     1
 42
1.0
 92
        8
 66
   257
 43
1.0
 76
     1
 77
     6
 78
     2
 67
     7
 79
     3
170
     0
171
     0
290
     0
174
     0
 93
       13
 44
0.0
173
     0
291
     0
 45
0.0
1001
ACAD
1000
AcDbSavedByObjectVersion
1070
     0
  0
VISUALSTYLE
  5
42
102
{ACAD_REACTORS
330
2A
102
}
102
{ACAD_XDICTIONARY
360
1DD
102
}
330
2A
100
AcDbVisualStyle
  2
Shaded
 70
    27
 71
     2
 72
     2
 73
     1
 90
        2
 40
0.6
 41
30.0
 62
     5
 63
     7
421
 16777215
 74
     0
 91
        4
 64
     7
 65
   257
 75
     1
175
     1
 42
1.0
 92
        8
 66
   257
 43
1.0
 76
     1
 77
     6
 78
     2
 67
     8
425
  7895160
 79
     3
170
     0
171
     0
290
     0
174
     0
 93
        5
 44
0.0
173
     0
291
     0
 45
0.0
1001
ACAD
1000
AcDbSavedByObjectVersion
1070
     0
  0
VISUALSTYLE
  5
41
102
{ACAD_REACTORS
330
2A
102
}
102
{ACAD_XDICTIONARY
360
1DB
102
}
330
2A
100
AcDbVisualStyle
  2
Shaded with edges
 70
    26
 71
     2
 72
     2
 73
     1
 90
        2
 40
0.6
 41
30.0
 62
     5
 63
     7
421
 16777215
 74
     1
 91
       10
 64
     7
 65
   257
 75
     2
175
     1
 42
1.0
 92
        8
 66
   257
 43
1.0
 76
     1
 77
     6
 78
     2
 67
     7
 79
     3
170
     0
171
     0
290
     0
174
     0
 93
        5
 44
0.0
173
     0
291
     0
 45
0.0
1001
ACAD
1000
AcDbSavedByObjectVersion
1070
     0
  0
VISUALSTYLE
  5
3E
102
{ACAD_REACTORS
330
2A
102
}
102
{ACAD_XDICTIONARY
360
1D5
102
}
330
2A
100
AcDbVisualStyle
  2
Shades of Gray
 70
    23
 71
     2
 72
     2
 73
     3
 90
        0
 40
0.6
 41
30.0
 62
     5
 63
     7
421
 16777215
 74
     2
 91
        2
 64
     7
 65
     7
 75
     1
175
     1
 42
40.0
 92
        8
 66
     7
 43
1.0
 76
     1
 77
     6
 78
     2
 67
     7
 79
     3
170
     0
171
     0
290
     0
174
     0
 93
        1
 44
0.0
173
     0
291
     0
 45
0.0
1001
ACAD
1000
AcDbSavedByObjectVersion
1070
     0
  0
VISUALSTYLE
  5
3F
102
{ACAD_REACTORS
330
2A
102
}
102
{ACAD_XDICTIONARY
360
1D7
102
}
330
2A
100
AcDbVisualStyle
  2
Sketchy
 70
    24
 71
     1
 72
     2
 73
     2
 90
        0
 40
0.6
 41
30.0
 62
     5
 63
     7
421
 16777215
 74
     2
 91
        2
 64
     7
 65
     7
 75
     1
175
     1
 42
40.0
 92
       11
 66
     7
 43
1.0
 76
     1
 77
     6
 78
     2
 67
     7
 79
     6
170
     0
171
     0
290
     0
174
     0
 93
        1
 44
0.0
173
     0
291
     0
 45
0.0
1001
ACAD
1000
AcDbSavedByObjectVersion
1070
     0
  0
VISUALSTYLE
  5
37
102
{ACAD_REACTORS
330
2A
102
}
102
{ACAD_XDICTIONARY
360
1C7
102
}
330
2A
100
AcDbVisualStyle
  2
Thicken
 70
    13
 71
     2
 72
     2
 73
     0
 90
        0
 40
0.6
 41
30.0
 62
     5
 63
     7
421
 16777215
 74
     1
 91
        4
 64
     7
 65
   257
 75
     1
175
     1
 42
1.0
 92
       12
 66
     7
 43
1.0
 76
     1
 77
     6
 78
     2
 67
     7
 79
     5
170
     0
171
     0
290
     0
174
     0
 93
        1
 44
0.0
173
     0
291
     1
 45
0.0
1001
ACAD
1000
AcDbSavedByObjectVersion
1070
     0
  0
VISUALSTYLE
  5
30
102
{ACAD_REACTORS
330
2A
102
}
102
{ACAD_XDICTIONARY
360
1B9
102
}
330
2A
100
AcDbVisualStyle
  2
Wireframe
 70
     5
 71
     0
 72
     2
 73
     0
 90
        0
 40
0.6
 41
30.0
 62
     5
 63
     7
421
 16777215
 74
     1
 91
        4
 64
     7
 65
   257
 75
     1
175
     1
 42
1.0
 92
        0
 66
   257
 43
1.0
 76
     1
 77
     6
 78
     2
 67
     7
 79
     3
170
     0
171
     0
290
     0
174
     0
 93
        1
 44
0.0
173
     0
291
     0
 45
0.0
1001
ACAD
1000
AcDbSavedByObjectVersion
1070
     0
  0
VISUALSTYLE
  5
40
102
{ACAD_REACTORS
330
2A
102
}
102
{ACAD_XDICTIONARY
360
1D9
102
}
330
2A
100
AcDbVisualStyle
  2
X-Ray
 70
    25
 71
     2
 72
     2
 73
     1
 90
        1
 40
0.5
 41
30.0
 62
     5
 63
     7
421
 16777215
 74
     1
 91
        0
 64
     7
 65
   257
 75
     1
175
     1
 42
1.0
 92
        8
 66
     7
 43
1.0
 76
     1
 77
     6
 78
     2
 67
     7
 79
     3
170
     0
171
     0
290
     0
174
     0
 93
       13
 44
0.0
173
     0
291
     0
 45
0.0
1001
ACAD
1000
AcDbSavedByObjectVersion
1070
     0
  0
DICTIONARYVAR
  5
1AC
102
{ACAD_REACTORS
330
1AB
102
}
330
1AB
100
DictionaryVariables
280
     0
  1
1:1
  0
DICTIONARYVAR
  5
1ED
102
{ACAD_REACTORS
330
1AB
102
}
330
1AB
100
DictionaryVariables
280
     0
  1
Standard
  0
DICTIONARYVAR
  5
1EC
102
{ACAD_REACTORS
330
1AB
102
}
330
1AB
100
DictionaryVariables
280
     0
  1
Standard
  0
DICTIONARYVAR
  5
1AD
102
{ACAD_REACTORS
330
1AB
102
}
330
1AB
100
DictionaryVariables
280
     0
  1
1
  0
DICTIONARYVAR
  5
1AE
102
{ACAD_REACTORS
330
1AB
102
}
330
1AB
100
DictionaryVariables
280
     0
  1
2
  0
DICTIONARY
  5
1E1
330
45
100
AcDbDictionary
280
     1
281
     1
  3
ACAD_XREC_ROUNDTRIP
360
1E2
  0
DICTIONARY
  5
1DF
330
44
100
AcDbDictionary
280
     1
281
     1
  3
ACAD_XREC_ROUNDTRIP
360
1E0
  0
DICTIONARY
  5
1E3
330
46
100
AcDbDictionary
280
     1
281
     1
  3
ACAD_XREC_ROUNDTRIP
360
1E4
  0
DICTIONARY
  5
1E9
330
6C
100
AcDbDictionary
280
     1
281
     1
  3
ACAD_XREC_ROUNDTRIP
360
1EA
  0
DICTIONARY
  5
1E5
330
6A
100
AcDbDictionary
280
     1
281
     1
  3
ACAD_ROUNDTRIP_2008_TABLESTYLE_CELLSTYLEMAP
360
1E7
  3
ACAD_XREC_ROUNDTRIP
360
1E6
  0
DICTIONARY
  5
1B7
330
2F
100
AcDbDictionary
280
     1
281
     1
  3
ACAD_XREC_ROUNDTRIP
360
1B8
  0
DICTIONARY
  5
1BD
330
32
100
AcDbDictionary
280
     1
281
     1
  3
ACAD_XREC_ROUNDTRIP
360
1BE
  0
DICTIONARY
  5
1C5
330
36
100
AcDbDictionary
280
     1
281
     1
  3
ACAD_XREC_ROUNDTRIP
360
1C6
  0
DICTIONARY
  5
1CD
330
3A
100
AcDbDictionary
280
     1
281
     1
  3
ACAD_XREC_ROUNDTRIP
360
1CE
  0
DICTIONARY
  5
1C1
330
34
100
AcDbDictionary
280
     1
281
     1
  3
ACAD_XREC_ROUNDTRIP
360
1C2
  0
DICTIONARY
  5
1C3
330
35
100
AcDbDictionary
280
     1
281
     1
  3
ACAD_XREC_ROUNDTRIP
360
1C4
  0
DICTIONARY
  5
1D3
330
3D
100
AcDbDictionary
280
     1
281
     1
  3
ACAD_XREC_ROUNDTRIP
360
1D4
  0
DICTIONARY
  5
1CB
330
39
100
AcDbDictionary
280
     1
281
     1
  3
ACAD_XREC_ROUNDTRIP
360
1CC
  0
DICTIONARY
  5
1AF
330
2B
100
AcDbDictionary
280
     1
281
     1
  3
ACAD_XREC_ROUNDTRIP
360
1B0
  0
DICTIONARY
  5
1B1
330
2C
100
AcDbDictionary
280
     1
281
     1
  3
ACAD_XREC_ROUNDTRIP
360
1B2
  0
DICTIONARY
  5
1B3
330
2D
100
AcDbDictionary
280
     1
281
     1
  3
ACAD_XREC_ROUNDTRIP
360
1B4
  0
DICTIONARY
  5
1B5
330
2E
100
AcDbDictionary
280
     1
281
     1
  3
ACAD_XREC_ROUNDTRIP
360
1B6
  0
DICTIONARY
  5
1BB
330
31
100
AcDbDictionary
280
     1
281
     1
  3
ACAD_XREC_ROUNDTRIP
360
1BC
  0
DICTIONARY
  5
1CF
330
3B
100
AcDbDictionary
280
     1
281
     1
  3
ACAD_XREC_ROUNDTRIP
360
1D0
  0
DICTIONARY
  5
1C9
330
38
100
AcDbDictionary
280
     1
281
     1
  3
ACAD_XREC_ROUNDTRIP
360
1CA
  0
DICTIONARY
  5
1D1
330
3C
100
AcDbDictionary
280
     1
281
     1
  3
ACAD_XREC_ROUNDTRIP
360
1D2
  0
DICTIONARY
  5
1BF
330
33
100
AcDbDictionary
280
     1
281
     1
  3
ACAD_XREC_ROUNDTRIP
360
1C0
  0
DICTIONARY
  5
1DD
330
42
100
AcDbDictionary
280
     1
281
     1
  3
ACAD_XREC_ROUNDTRIP
360
1DE
  0
DICTIONARY
  5
1DB
330
41
100
AcDbDictionary
280
     1
281
     1
  3
ACAD_XREC_ROUNDTRIP
360
1DC
  0
DICTIONARY
  5
1D5
330
3E
100
AcDbDictionary
280
     1
281
     1
  3
ACAD_XREC_ROUNDTRIP
360
1D6
  0
DICTIONARY
  5
1D7
330
3F
100
AcDbDictionary
280
     1
281
     1
  3
ACAD_XREC_ROUNDTRIP
360
1D8
  0
DICTIONARY
  5
1C7
330
37
100
AcDbDictionary
280
     1
281
     1
  3
ACAD_XREC_ROUNDTRIP
360
1C8
  0
DICTIONARY
  5
1B9
330
30
100
AcDbDictionary
280
     1
281
     1
  3
ACAD_XREC_ROUNDTRIP
360
1BA
  0
DICTIONARY
  5
1D9
330
40
100
AcDbDictionary
280
     1
281
     1
  3
ACAD_XREC_ROUNDTRIP
360
1DA
  0
XRECORD
  5
1E2
102
{ACAD_REACTORS
330
1E1
102
}
330
1E1
100
AcDbXrecord
280
     1
102
MATERIAL
148
0.0
149
0.0
149
0.0
 93
        0
 94
      127
282
     0
 72
     1
 77
     1
171
     1
175
     1
179
     1
273
     0
  0
XRECORD
  5
1E0
102
{ACAD_REACTORS
330
1DF
102
}
330
1DF
100
AcDbXrecord
280
     1
102
MATERIAL
148
0.0
149
0.0
149
0.0
 93
        0
 94
      127
282
     0
 72
     1
 77
     1
171
     1
175
     1
179
     1
273
     0
  0
XRECORD
  5
1E4
102
{ACAD_REACTORS
330
1E3
102
}
330
1E3
100
AcDbXrecord
280
     1
102
MATERIAL
148
0.0
149
0.0
149
0.0
 93
        0
 94
      127
282
     0
 72
     1
 77
     1
171
     1
175
     1
179
     1
273
     0
  0
XRECORD
  5
1EA
102
{ACAD_REACTORS
330
1E9
102
}
330
1E9
100
AcDbXrecord
280
     1
102
ACAD_ROUNDTRIP_2010_MLEADER_STYLE
  0
CELLSTYLEMAP
  5
1E7
102
{ACAD_REACTORS
330
1E5
102
}
330
1E5
100
AcDbCellStyleMap
 90
        3
300
CELLSTYLE
  1
TABLEFORMAT_BEGIN
 90
        5
170
     1
 91
        0
 92
    32768
 62
   257
 93
        1
300
CONTENTFORMAT
  1
CONTENTFORMAT_BEGIN
 90
        0
 91
        0
 92
        4
 93
        0
300

 40
0.0
140
1.0
 94
        5
 62
     0
340
11
144
0.25
309
CONTENTFORMAT_END
171
     1
301
MARGIN
  1
CELLMARGIN_BEGIN
 40
0.06
 40
0.06
 40
0.06
 40
0.06
 40
0.06
 40
0.06
309
CELLMARGIN_END
 94
        6
 95
        1
302
GRIDFORMAT
  1
GRIDFORMAT_BEGIN
 90
        0
 91
        1
 62
     0
 92
       -2
340
14
 93
        0
 40
0.045
309
GRIDFORMAT_END
 95
        2
302
GRIDFORMAT
  1
GRIDFORMAT_BEGIN
 90
        0
 91
        1
 62
     0
 92
       -2
340
14
 93
        0
 40
0.045
309
GRIDFORMAT_END
 95
        4
302
GRIDFORMAT
  1
GRIDFORMAT_BEGIN
 90
        0
 91
        1
 62
     0
 92
       -2
340
14
 93
        0
 40
0.045
309
GRIDFORMAT_END
 95
        8
302
GRIDFORMAT
  1
GRIDFORMAT_BEGIN
 90
        0
 91
        1
 62
     0
 92
       -2
340
14
 93
        0
 40
0.045
309
GRIDFORMAT_END
 95
       16
302
GRIDFORMAT
  1
GRIDFORMAT_BEGIN
 90
        0
 91
        1
 62
     0
 92
       -2
340
14
 93
        0
 40
0.045
309
GRIDFORMAT_END
 95
       32
302
GRIDFORMAT
  1
GRIDFORMAT_BEGIN
 90
        0
 91
        1
 62
     0
 92
       -2
340
14
 93
        0
 40
0.045
309
GRIDFORMAT_END
309
TABLEFORMAT_END
  1
CELLSTYLE_BEGIN
 90
        1
 91
        1
300
_TITLE
309
CELLSTYLE_END
300
CELLSTYLE
  1
TABLEFORMAT_BEGIN
 90
        5
170
     1
 91
        0
 92
        0
 62
   257
 93
        1
300
CONTENTFORMAT
  1
CONTENTFORMAT_BEGIN
 90
        0
 91
        0
 92
        4
 93
        0
300

 40
0.0
140
1.0
 94
        5
 62
     0
340
11
144
0.18
309
CONTENTFORMAT_END
171
     1
301
MARGIN
  1
CELLMARGIN_BEGIN
 40
0.06
 40
0.06
 40
0.06
 40
0.06
 40
0.06
 40
0.06
309
CELLMARGIN_END
 94
        6
 95
        1
302
GRIDFORMAT
  1
GRIDFORMAT_BEGIN
 90
        0
 91
        1
 62
     0
 92
       -2
340
14
 93
        0
 40
0.045
309
GRIDFORMAT_END
 95
        2
302
GRIDFORMAT
  1
GRIDFORMAT_BEGIN
 90
        0
 91
        1
 62
     0
 92
       -2
340
14
 93
        0
 40
0.045
309
GRIDFORMAT_END
 95
        4
302
GRIDFORMAT
  1
GRIDFORMAT_BEGIN
 90
        0
 91
        1
 62
     0
 92
       -2
340
14
 93
        0
 40
0.045
309
GRIDFORMAT_END
 95
        8
302
GRIDFORMAT
  1
GRIDFORMAT_BEGIN
 90
        0
 91
        1
 62
     0
 92
       -2
340
14
 93
        0
 40
0.045
309
GRIDFORMAT_END
 95
       16
302
GRIDFORMAT
  1
GRIDFORMAT_BEGIN
 90
        0
 91
        1
 62
     0
 92
       -2
340
14
 93
        0
 40
0.045
309
GRIDFORMAT_END
 95
       32
302
GRIDFORMAT
  1
GRIDFORMAT_BEGIN
 90
        0
 91
        1
 62
     0
 92
       -2
340
14
 93
        0
 40
0.045
309
GRIDFORMAT_END
309
TABLEFORMAT_END
  1
CELLSTYLE_BEGIN
 90
        2
 91
        1
300
_HEADER
309
CELLSTYLE_END
300
CELLSTYLE
  1
TABLEFORMAT_BEGIN
 90
        5
170
     1
 91
        0
 92
        0
 62
   257
 93
        1
300
CONTENTFORMAT
  1
CONTENTFORMAT_BEGIN
 90
        0
 91
        0
 92
        4
 93
        0
300

 40
0.0
140
1.0
 94
        2
 62
     0
340
11
144
0.18
309
CONTENTFORMAT_END
171
     1
301
MARGIN
  1
CELLMARGIN_BEGIN
 40
0.06
 40
0.06
 40
0.06
 40
0.06
 40
0.06
 40
0.06
309
CELLMARGIN_END
 94
        6
 95
        1
302
GRIDFORMAT
  1
GRIDFORMAT_BEGIN
 90
        0
 91
        1
 62
     0
 92
       -2
340
14
 93
        0
 40
0.045
309
GRIDFORMAT_END
 95
        2
302
GRIDFORMAT
  1
GRIDFORMAT_BEGIN
 90
        0
 91
        1
 62
     0
 92
       -2
340
14
 93
        0
 40
0.045
309
GRIDFORMAT_END
 95
        4
302
GRIDFORMAT
  1
GRIDFORMAT_BEGIN
 90
        0
 91
        1
 62
     0
 92
       -2
340
14
 93
        0
 40
0.045
309
GRIDFORMAT_END
 95
        8
302
GRIDFORMAT
  1
GRIDFORMAT_BEGIN
 90
        0
 91
        1
 62
     0
 92
       -2
340
14
 93
        0
 40
0.045
309
GRIDFORMAT_END
 95
       16
302
GRIDFORMAT
  1
GRIDFORMAT_BEGIN
 90
        0
 91
        1
 62
     0
 92
       -2
340
14
 93
        0
 40
0.045
309
GRIDFORMAT_END
 95
       32
302
GRIDFORMAT
  1
GRIDFORMAT_BEGIN
 90
        0
 91
        1
 62
     0
 92
       -2
340
14
 93
        0
 40
0.045
309
GRIDFORMAT_END
309
TABLEFORMAT_END
  1
CELLSTYLE_BEGIN
 90
        3
 91
        2
300
_DATA
309
CELLSTYLE_END
  0
XRECORD
  5
1E6
102
{ACAD_REACTORS
330
1E5
102
}
330
1E5
100
AcDbXrecord
280
     1
102
ACAD_ROUNDTRIP_PRE2007_TABLESTYLE
 90
        4
 91
        0
  1

 92
        4
 93
        0
  2

 94
        4
 95
        0
  3

  0
XRECORD
  5
1B8
102
{ACAD_REACTORS
330
1B7
102
}
330
1B7
100
AcDbXrecord
280
     1
102
RTVSPropertyOp0
 70
     1
102
RTVSPropertyOp1
 70
     1
102
RTVSPropertyOp2
 70
     1
102
RTVSPropertyOp3
 70
     1
102
RTVSPropertyOp4
 70
     1
102
RTVSPropertyOp5
 70
     1
102
RTVSPropertyOp6
 70
     1
102
RTVSPropertyOp7
 70
     1
102
RTVSPropertyOp8
 70
     1
102
RTVSPropertyOp9
 70
     1
102
RTVSPropertyOp10
 70
     1
102
RTVSPropertyOp11
 70
     1
102
RTVSPropertyOp12
 70
     1
102
RTVSPropertyOp13
 70
     1
102
RTVSPropertyOp14
 70
     1
102
RTVSPropertyOp15
 70
     1
102
RTVSPropertyOp16
 70
     1
102
RTVSPropertyOp17
 70
     1
102
RTVSPropertyOp18
 70
     1
102
RTVSPropertyOp19
 70
     1
102
RTVSPropertyOp20
 70
     1
102
RTVSPropertyOp21
 70
     1
102
RTVSPropertyOp22
 70
     1
102
RTVSPropertyOp23
 70
     1
102
RTVSPropertyOp24
 70
     1
102
RTVSPropertyOp25
 70
     1
102
RTVSPropertyOp26
 70
     1
102
RTVSPropertyOp27
 70
     1
102
RTVSPropertyOp28
 70
     1
102
RTVSPropertyOp29
 70
     1
102
RTVSPropertyOp30
 70
     1
102
RTVSPropertyOp31
 70
     1
102
RTVSPropertyOp32
 70
     1
102
RTVSPropertyOp33
 70
     1
102
RTVSPropertyOp34
 70
     1
102
RTVSPropertyOp35
 70
     1
102
RTVSPropertyOp36
 70
     1
102
RTVSPropertyOp37
 70
     1
102
RTVSPropertyOp38
 70
     1
102
RTVSPropertyOp39
 70
     1
102
RTVSPropertyOp40
 70
     1
102
RTVSPropertyOp41
 70
     1
102
RTVSPropertyOp42
 70
     1
102
RTVSPropertyOp43
 70
     1
102
RTVSPropertyOp44
 70
     1
102
RTVSPropertyOp45
 70
     1
102
RTVSPropertyOp46
 70
     1
102
RTVSPropertyOp47
 70
     1
102
RTVSPropertyOp48
 70
     1
102
RTVSPropertyOp49
 70
     1
102
RTVSPropertyOp50
 70
     1
102
RTVSPropertyOp51
 70
     0
102
RTVSPropertyOp52
 70
     0
102
RTVSPropertyOp53
 70
     1
102
RTVSPropertyOp54
 70
     1
102
RTVSPropertyOp55
 70
     1
102
RTVSPropertyOp56
 70
     1
102
RTVSPropertyOp57
 70
     1
102
RTVSPost2010Prop28
280
     1
102
RTVSPost2010PropOp28
 70
     1
102
RTVSPost2010Prop29
280
     1
102
RTVSPost2010PropOp29
 70
     1
102
RTVSPost2010Prop30
280
     0
102
RTVSPost2010PropOp30
 70
     1
102
RTVSPost2010Prop31
280
     0
102
RTVSPost2010PropOp31
 70
     1
102
RTVSPost2010Prop32
280
     0
102
RTVSPost2010PropOp32
 70
     1
102
RTVSPost2010Prop33
280
     0
102
RTVSPost2010PropOp33
 70
     1
102
RTVSPost2010Prop34
280
     0
102
RTVSPost2010PropOp34
 70
     1
102
RTVSPost2010Prop35
280
     0
102
RTVSPost2010PropOp35
 70
     1
102
RTVSPost2010Prop36
280
     0
102
RTVSPost2010PropOp36
 70
     1
102
RTVSPost2010Prop37
 90
       50
102
RTVSPost2010PropOp37
 70
     1
102
RTVSPost2010Prop38
140
0.0
102
RTVSPost2010PropOp38
 70
     1
102
RTVSPost2010Prop39
140
1.0
102
RTVSPost2010PropOp39
 70
     1
102
RTVSPost2010Prop40
 90
        0
102
RTVSPost2010PropOp40
 70
     1
102
RTVSPost2010Prop41ColorIndex
 90
       18
102
RTVSPost2010Prop41ColorRGB
 90
        0
102
RTVSPost2010PropOp41
 70
     1
102
RTVSPost2010Prop42
 90
       50
102
RTVSPost2010PropOp42
 70
     1
102
RTVSPost2010Prop43
 90
        3
102
RTVSPost2010PropOp43
 70
     1
102
RTVSPost2010Prop44ColorIndex
 90
        5
102
RTVSPost2010Prop44ColorRGB
 90
      255
102
RTVSPost2010PropOp44
 70
     1
102
RTVSPost2010Prop45
280
     0
102
RTVSPost2010PropOp45
 70
     1
102
RTVSPost2010Prop46
 90
       50
102
RTVSPost2010PropOp46
 70
     1
102
RTVSPost2010Prop47
 90
       50
102
RTVSPost2010PropOp47
 70
     1
102
RTVSPost2010Prop48
 90
       50
102
RTVSPost2010PropOp48
 70
     1
102
RTVSPost2010Prop49
280
     0
102
RTVSPost2010PropOp49
 70
     1
102
RTVSPost2010Prop50
 90
       50
102
RTVSPost2010PropOp50
 70
     1
102
RTVSPost2010Prop51ColorIndex
 90
      256
102
RTVSPost2010Prop51ColorRGB
 90
-16777216
102
RTVSPost2010PropOp51
 70
     0
102
RTVSPost2010Prop52
140
1.0
102
RTVSPost2010PropOp52
 70
     0
102
RTVSPost2010Prop53
 90
        2
102
RTVSPost2010PropOp53
 70
     1
102
RTVSPost2010Prop54
  1
strokes_ogs.tif
102
RTVSPost2010PropOp54
 70
     1
102
RTVSPost2010Prop55
280
     0
102
RTVSPost2010PropOp55
 70
     1
102
RTVSPost2010Prop56
140
1.0
102
RTVSPost2010PropOp56
 70
     1
102
RTVSPost2010Prop57
140
1.0
102
RTVSPost2010PropOp57
 70
     1
  0
XRECORD
  5
1BE
102
{ACAD_REACTORS
330
1BD
102
}
330
1BD
100
AcDbXrecord
280
     1
102
RTVSPropertyOp0
 70
     1
102
RTVSPropertyOp1
 70
     1
102
RTVSPropertyOp2
 70
     1
102
RTVSPropertyOp3
 70
     1
102
RTVSPropertyOp4
 70
     1
102
RTVSPropertyOp5
 70
     1
102
RTVSPropertyOp6
 70
     1
102
RTVSPropertyOp7
 70
     1
102
RTVSPropertyOp8
 70
     1
102
RTVSPropertyOp9
 70
     1
102
RTVSPropertyOp10
 70
     1
102
RTVSPropertyOp11
 70
     1
102
RTVSPropertyOp12
 70
     1
102
RTVSPropertyOp13
 70
     1
102
RTVSPropertyOp14
 70
     1
102
RTVSPropertyOp15
 70
     1
102
RTVSPropertyOp16
 70
     1
102
RTVSPropertyOp17
 70
     1
102
RTVSPropertyOp18
 70
     1
102
RTVSPropertyOp19
 70
     1
102
RTVSPropertyOp20
 70
     1
102
RTVSPropertyOp21
 70
     1
102
RTVSPropertyOp22
 70
     1
102
RTVSPropertyOp23
 70
     1
102
RTVSPropertyOp24
 70
     1
102
RTVSPropertyOp25
 70
     1
102
RTVSPropertyOp26
 70
     1
102
RTVSPropertyOp27
 70
     1
102
RTVSPropertyOp28
 70
     1
102
RTVSPropertyOp29
 70
     1
102
RTVSPropertyOp30
 70
     1
102
RTVSPropertyOp31
 70
     1
102
RTVSPropertyOp32
 70
     1
102
RTVSPropertyOp33
 70
     1
102
RTVSPropertyOp34
 70
     1
102
RTVSPropertyOp35
 70
     1
102
RTVSPropertyOp36
 70
     1
102
RTVSPropertyOp37
 70
     1
102
RTVSPropertyOp38
 70
     1
102
RTVSPropertyOp39
 70
     1
102
RTVSPropertyOp40
 70
     1
102
RTVSPropertyOp41
 70
     1
102
RTVSPropertyOp42
 70
     1
102
RTVSPropertyOp43
 70
     1
102
RTVSPropertyOp44
 70
     1
102
RTVSPropertyOp45
 70
     1
102
RTVSPropertyOp46
 70
     1
102
RTVSPropertyOp47
 70
     1
102
RTVSPropertyOp48
 70
     1
102
RTVSPropertyOp49
 70
     1
102
RTVSPropertyOp50
 70
     1
102
RTVSPropertyOp51
 70
     0
102
RTVSPropertyOp52
 70
     0
102
RTVSPropertyOp53
 70
     1
102
RTVSPropertyOp54
 70
     1
102
RTVSPropertyOp55
 70
     1
102
RTVSPropertyOp56
 70
     1
102
RTVSPropertyOp57
 70
     1
102
RTVSPost2010Prop28
280
     0
102
RTVSPost2010PropOp28
 70
     1
102
RTVSPost2010Prop29
280
     1
102
RTVSPost2010PropOp29
 70
     1
102
RTVSPost2010Prop30
280
     1
102
RTVSPost2010PropOp30
 70
     1
102
RTVSPost2010Prop31
280
     0
102
RTVSPost2010PropOp31
 70
     1
102
RTVSPost2010Prop32
280
     0
102
RTVSPost2010PropOp32
 70
     1
102
RTVSPost2010Prop33
280
     0
102
RTVSPost2010PropOp33
 70
     1
102
RTVSPost2010Prop34
280
     0
102
RTVSPost2010PropOp34
 70
     1
102
RTVSPost2010Prop35
280
     0
102
RTVSPost2010PropOp35
 70
     1
102
RTVSPost2010Prop36
280
     0
102
RTVSPost2010PropOp36
 70
     1
102
RTVSPost2010Prop37
 90
       50
102
RTVSPost2010PropOp37
 70
     1
102
RTVSPost2010Prop38
140
0.0
102
RTVSPost2010PropOp38
 70
     1
102
RTVSPost2010Prop39
140
1.0
102
RTVSPost2010PropOp39
 70
     1
102
RTVSPost2010Prop40
 90
        0
102
RTVSPost2010PropOp40
 70
     1
102
RTVSPost2010Prop41ColorIndex
 90
       18
102
RTVSPost2010Prop41ColorRGB
 90
        0
102
RTVSPost2010PropOp41
 70
     1
102
RTVSPost2010Prop42
 90
       50
102
RTVSPost2010PropOp42
 70
     1
102
RTVSPost2010Prop43
 90
        3
102
RTVSPost2010PropOp43
 70
     1
102
RTVSPost2010Prop44ColorIndex
 90
        5
102
RTVSPost2010Prop44ColorRGB
 90
      255
102
RTVSPost2010PropOp44
 70
     1
102
RTVSPost2010Prop45
280
     0
102
RTVSPost2010PropOp45
 70
     1
102
RTVSPost2010Prop46
 90
       50
102
RTVSPost2010PropOp46
 70
     1
102
RTVSPost2010Prop47
 90
       50
102
RTVSPost2010PropOp47
 70
     1
102
RTVSPost2010Prop48
 90
       50
102
RTVSPost2010PropOp48
 70
     1
102
RTVSPost2010Prop49
280
     0
102
RTVSPost2010PropOp49
 70
     1
102
RTVSPost2010Prop50
 90
       50
102
RTVSPost2010PropOp50
 70
     1
102
RTVSPost2010Prop51ColorIndex
 90
      256
102
RTVSPost2010Prop51ColorRGB
 90
-16777216
102
RTVSPost2010PropOp51
 70
     0
102
RTVSPost2010Prop52
140
1.0
102
RTVSPost2010PropOp52
 70
     0
102
RTVSPost2010Prop53
 90
        2
102
RTVSPost2010PropOp53
 70
     1
102
RTVSPost2010Prop54
  1
strokes_ogs.tif
102
RTVSPost2010PropOp54
 70
     1
102
RTVSPost2010Prop55
280
     0
102
RTVSPost2010PropOp55
 70
     1
102
RTVSPost2010Prop56
140
1.0
102
RTVSPost2010PropOp56
 70
     1
102
RTVSPost2010Prop57
140
1.0
102
RTVSPost2010PropOp57
 70
     1
  0
XRECORD
  5
1C6
102
{ACAD_REACTORS
330
1C5
102
}
330
1C5
100
AcDbXrecord
280
     1
102
RTVSPropertyOp0
 70
     1
102
RTVSPropertyOp1
 70
     1
102
RTVSPropertyOp2
 70
     1
102
RTVSPropertyOp3
 70
     1
102
RTVSPropertyOp4
 70
     1
102
RTVSPropertyOp5
 70
     1
102
RTVSPropertyOp6
 70
     1
102
RTVSPropertyOp7
 70
     1
102
RTVSPropertyOp8
 70
     1
102
RTVSPropertyOp9
 70
     1
102
RTVSPropertyOp10
 70
     1
102
RTVSPropertyOp11
 70
     1
102
RTVSPropertyOp12
 70
     1
102
RTVSPropertyOp13
 70
     1
102
RTVSPropertyOp14
 70
     1
102
RTVSPropertyOp15
 70
     1
102
RTVSPropertyOp16
 70
     1
102
RTVSPropertyOp17
 70
     1
102
RTVSPropertyOp18
 70
     1
102
RTVSPropertyOp19
 70
     1
102
RTVSPropertyOp20
 70
     1
102
RTVSPropertyOp21
 70
     1
102
RTVSPropertyOp22
 70
     1
102
RTVSPropertyOp23
 70
     1
102
RTVSPropertyOp24
 70
     1
102
RTVSPropertyOp25
 70
     1
102
RTVSPropertyOp26
 70
     1
102
RTVSPropertyOp27
 70
     1
102
RTVSPropertyOp28
 70
     1
102
RTVSPropertyOp29
 70
     1
102
RTVSPropertyOp30
 70
     1
102
RTVSPropertyOp31
 70
     1
102
RTVSPropertyOp32
 70
     1
102
RTVSPropertyOp33
 70
     1
102
RTVSPropertyOp34
 70
     1
102
RTVSPropertyOp35
 70
     1
102
RTVSPropertyOp36
 70
     1
102
RTVSPropertyOp37
 70
     1
102
RTVSPropertyOp38
 70
     1
102
RTVSPropertyOp39
 70
     1
102
RTVSPropertyOp40
 70
     1
102
RTVSPropertyOp41
 70
     1
102
RTVSPropertyOp42
 70
     1
102
RTVSPropertyOp43
 70
     1
102
RTVSPropertyOp44
 70
     1
102
RTVSPropertyOp45
 70
     1
102
RTVSPropertyOp46
 70
     1
102
RTVSPropertyOp47
 70
     1
102
RTVSPropertyOp48
 70
     1
102
RTVSPropertyOp49
 70
     1
102
RTVSPropertyOp50
 70
     1
102
RTVSPropertyOp51
 70
     0
102
RTVSPropertyOp52
 70
     0
102
RTVSPropertyOp53
 70
     1
102
RTVSPropertyOp54
 70
     1
102
RTVSPropertyOp55
 70
     1
102
RTVSPropertyOp56
 70
     1
102
RTVSPropertyOp57
 70
     1
102
RTVSPost2010Prop28
280
     0
102
RTVSPost2010PropOp28
 70
     1
102
RTVSPost2010Prop29
280
     1
102
RTVSPost2010PropOp29
 70
     1
102
RTVSPost2010Prop30
280
     1
102
RTVSPost2010PropOp30
 70
     1
102
RTVSPost2010Prop31
280
     0
102
RTVSPost2010PropOp31
 70
     1
102
RTVSPost2010Prop32
280
     0
102
RTVSPost2010PropOp32
 70
     1
102
RTVSPost2010Prop33
280
     0
102
RTVSPost2010PropOp33
 70
     1
102
RTVSPost2010Prop34
280
     0
102
RTVSPost2010PropOp34
 70
     1
102
RTVSPost2010Prop35
280
     0
102
RTVSPost2010PropOp35
 70
     1
102
RTVSPost2010Prop36
280
     0
102
RTVSPost2010PropOp36
 70
     1
102
RTVSPost2010Prop37
 90
       50
102
RTVSPost2010PropOp37
 70
     1
102
RTVSPost2010Prop38
140
0.0
102
RTVSPost2010PropOp38
 70
     1
102
RTVSPost2010Prop39
140
1.0
102
RTVSPost2010PropOp39
 70
     1
102
RTVSPost2010Prop40
 90
        0
102
RTVSPost2010PropOp40
 70
     1
102
RTVSPost2010Prop41ColorIndex
 90
       18
102
RTVSPost2010Prop41ColorRGB
 90
        0
102
RTVSPost2010PropOp41
 70
     1
102
RTVSPost2010Prop42
 90
       50
102
RTVSPost2010PropOp42
 70
     1
102
RTVSPost2010Prop43
 90
        3
102
RTVSPost2010PropOp43
 70
     1
102
RTVSPost2010Prop44ColorIndex
 90
        5
102
RTVSPost2010Prop44ColorRGB
 90
      255
102
RTVSPost2010PropOp44
 70
     1
102
RTVSPost2010Prop45
280
     0
102
RTVSPost2010PropOp45
 70
     1
102
RTVSPost2010Prop46
 90
       50
102
RTVSPost2010PropOp46
 70
     1
102
RTVSPost2010Prop47
 90
       50
102
RTVSPost2010PropOp47
 70
     1
102
RTVSPost2010Prop48
 90
       50
102
RTVSPost2010PropOp48
 70
     1
102
RTVSPost2010Prop49
280
     0
102
RTVSPost2010PropOp49
 70
     1
102
RTVSPost2010Prop50
 90
       50
102
RTVSPost2010PropOp50
 70
     1
102
RTVSPost2010Prop51ColorIndex
 90
      256
102
RTVSPost2010Prop51ColorRGB
 90
-16777216
102
RTVSPost2010PropOp51
 70
     0
102
RTVSPost2010Prop52
140
1.0
102
RTVSPost2010PropOp52
 70
     0
102
RTVSPost2010Prop53
 90
        2
102
RTVSPost2010PropOp53
 70
     1
102
RTVSPost2010Prop54
  1
strokes_ogs.tif
102
RTVSPost2010PropOp54
 70
     1
102
RTVSPost2010Prop55
280
     0
102
RTVSPost2010PropOp55
 70
     1
102
RTVSPost2010Prop56
140
1.0
102
RTVSPost2010PropOp56
 70
     1
102
RTVSPost2010Prop57
140
1.0
102
RTVSPost2010PropOp57
 70
     1
  0
XRECORD
  5
1CE
102
{ACAD_REACTORS
330
1CD
102
}
330
1CD
100
AcDbXrecord
280
     1
102
RTVSPropertyOp0
 70
     1
102
RTVSPropertyOp1
 70
     1
102
RTVSPropertyOp2
 70
     1
102
RTVSPropertyOp3
 70
     1
102
RTVSPropertyOp4
 70
     1
102
RTVSPropertyOp5
 70
     1
102
RTVSPropertyOp6
 70
     1
102
RTVSPropertyOp7
 70
     1
102
RTVSPropertyOp8
 70
     1
102
RTVSPropertyOp9
 70
     1
102
RTVSPropertyOp10
 70
     1
102
RTVSPropertyOp11
 70
     1
102
RTVSPropertyOp12
 70
     1
102
RTVSPropertyOp13
 70
     1
102
RTVSPropertyOp14
 70
     1
102
RTVSPropertyOp15
 70
     1
102
RTVSPropertyOp16
 70
     1
102
RTVSPropertyOp17
 70
     1
102
RTVSPropertyOp18
 70
     1
102
RTVSPropertyOp19
 70
     1
102
RTVSPropertyOp20
 70
     1
102
RTVSPropertyOp21
 70
     1
102
RTVSPropertyOp22
 70
     1
102
RTVSPropertyOp23
 70
     1
102
RTVSPropertyOp24
 70
     1
102
RTVSPropertyOp25
 70
     1
102
RTVSPropertyOp26
 70
     1
102
RTVSPropertyOp27
 70
     1
102
RTVSPropertyOp28
 70
     1
102
RTVSPropertyOp29
 70
     1
102
RTVSPropertyOp30
 70
     1
102
RTVSPropertyOp31
 70
     1
102
RTVSPropertyOp32
 70
     1
102
RTVSPropertyOp33
 70
     1
102
RTVSPropertyOp34
 70
     1
102
RTVSPropertyOp35
 70
     1
102
RTVSPropertyOp36
 70
     1
102
RTVSPropertyOp37
 70
     1
102
RTVSPropertyOp38
 70
     1
102
RTVSPropertyOp39
 70
     1
102
RTVSPropertyOp40
 70
     1
102
RTVSPropertyOp41
 70
     1
102
RTVSPropertyOp42
 70
     1
102
RTVSPropertyOp43
 70
     1
102
RTVSPropertyOp44
 70
     1
102
RTVSPropertyOp45
 70
     1
102
RTVSPropertyOp46
 70
     1
102
RTVSPropertyOp47
 70
     1
102
RTVSPropertyOp48
 70
     1
102
RTVSPropertyOp49
 70
     1
102
RTVSPropertyOp50
 70
     1
102
RTVSPropertyOp51
 70
     0
102
RTVSPropertyOp52
 70
     0
102
RTVSPropertyOp53
 70
     1
102
RTVSPropertyOp54
 70
     1
102
RTVSPropertyOp55
 70
     1
102
RTVSPropertyOp56
 70
     1
102
RTVSPropertyOp57
 70
     1
102
RTVSPost2010Prop28
280
     0
102
RTVSPost2010PropOp28
 70
     1
102
RTVSPost2010Prop29
280
     1
102
RTVSPost2010PropOp29
 70
     1
102
RTVSPost2010Prop30
280
     1
102
RTVSPost2010PropOp30
 70
     1
102
RTVSPost2010Prop31
280
     0
102
RTVSPost2010PropOp31
 70
     1
102
RTVSPost2010Prop32
280
     0
102
RTVSPost2010PropOp32
 70
     1
102
RTVSPost2010Prop33
280
     0
102
RTVSPost2010PropOp33
 70
     1
102
RTVSPost2010Prop34
280
     0
102
RTVSPost2010PropOp34
 70
     1
102
RTVSPost2010Prop35
280
     0
102
RTVSPost2010PropOp35
 70
     1
102
RTVSPost2010Prop36
280
     0
102
RTVSPost2010PropOp36
 70
     1
102
RTVSPost2010Prop37
 90
       50
102
RTVSPost2010PropOp37
 70
     1
102
RTVSPost2010Prop38
140
0.0
102
RTVSPost2010PropOp38
 70
     1
102
RTVSPost2010Prop39
140
1.0
102
RTVSPost2010PropOp39
 70
     1
102
RTVSPost2010Prop40
 90
        0
102
RTVSPost2010PropOp40
 70
     1
102
RTVSPost2010Prop41ColorIndex
 90
       18
102
RTVSPost2010Prop41ColorRGB
 90
        0
102
RTVSPost2010PropOp41
 70
     1
102
RTVSPost2010Prop42
 90
       50
102
RTVSPost2010PropOp42
 70
     1
102
RTVSPost2010Prop43
 90
        3
102
RTVSPost2010PropOp43
 70
     1
102
RTVSPost2010Prop44ColorIndex
 90
        5
102
RTVSPost2010Prop44ColorRGB
 90
      255
102
RTVSPost2010PropOp44
 70
     1
102
RTVSPost2010Prop45
280
     0
102
RTVSPost2010PropOp45
 70
     1
102
RTVSPost2010Prop46
 90
       50
102
RTVSPost2010PropOp46
 70
     1
102
RTVSPost2010Prop47
 90
       50
102
RTVSPost2010PropOp47
 70
     1
102
RTVSPost2010Prop48
 90
       50
102
RTVSPost2010PropOp48
 70
     1
102
RTVSPost2010Prop49
280
     0
102
RTVSPost2010PropOp49
 70
     1
102
RTVSPost2010Prop50
 90
       50
102
RTVSPost2010PropOp50
 70
     1
102
RTVSPost2010Prop51ColorIndex
 90
      256
102
RTVSPost2010Prop51ColorRGB
 90
-16777216
102
RTVSPost2010PropOp51
 70
     0
102
RTVSPost2010Prop52
140
1.0
102
RTVSPost2010PropOp52
 70
     0
102
RTVSPost2010Prop53
 90
        2
102
RTVSPost2010PropOp53
 70
     1
102
RTVSPost2010Prop54
  1
strokes_ogs.tif
102
RTVSPost2010PropOp54
 70
     1
102
RTVSPost2010Prop55
280
     0
102
RTVSPost2010PropOp55
 70
     1
102
RTVSPost2010Prop56
140
1.0
102
RTVSPost2010PropOp56
 70
     1
102
RTVSPost2010Prop57
140
1.0
102
RTVSPost2010PropOp57
 70
     1
  0
XRECORD
  5
1C2
102
{ACAD_REACTORS
330
1C1
102
}
330
1C1
100
AcDbXrecord
280
     1
102
RTVSPropertyOp0
 70
     1
102
RTVSPropertyOp1
 70
     1
102
RTVSPropertyOp2
 70
     1
102
RTVSPropertyOp3
 70
     1
102
RTVSPropertyOp4
 70
     1
102
RTVSPropertyOp5
 70
     1
102
RTVSPropertyOp6
 70
     1
102
RTVSPropertyOp7
 70
     1
102
RTVSPropertyOp8
 70
     1
102
RTVSPropertyOp9
 70
     1
102
RTVSPropertyOp10
 70
     1
102
RTVSPropertyOp11
 70
     1
102
RTVSPropertyOp12
 70
     1
102
RTVSPropertyOp13
 70
     1
102
RTVSPropertyOp14
 70
     1
102
RTVSPropertyOp15
 70
     1
102
RTVSPropertyOp16
 70
     1
102
RTVSPropertyOp17
 70
     1
102
RTVSPropertyOp18
 70
     1
102
RTVSPropertyOp19
 70
     1
102
RTVSPropertyOp20
 70
     1
102
RTVSPropertyOp21
 70
     1
102
RTVSPropertyOp22
 70
     1
102
RTVSPropertyOp23
 70
     1
102
RTVSPropertyOp24
 70
     1
102
RTVSPropertyOp25
 70
     1
102
RTVSPropertyOp26
 70
     1
102
RTVSPropertyOp27
 70
     1
102
RTVSPropertyOp28
 70
     1
102
RTVSPropertyOp29
 70
     1
102
RTVSPropertyOp30
 70
     1
102
RTVSPropertyOp31
 70
     1
102
RTVSPropertyOp32
 70
     1
102
RTVSPropertyOp33
 70
     1
102
RTVSPropertyOp34
 70
     1
102
RTVSPropertyOp35
 70
     1
102
RTVSPropertyOp36
 70
     1
102
RTVSPropertyOp37
 70
     1
102
RTVSPropertyOp38
 70
     1
102
RTVSPropertyOp39
 70
     1
102
RTVSPropertyOp40
 70
     1
102
RTVSPropertyOp41
 70
     1
102
RTVSPropertyOp42
 70
     1
102
RTVSPropertyOp43
 70
     1
102
RTVSPropertyOp44
 70
     1
102
RTVSPropertyOp45
 70
     1
102
RTVSPropertyOp46
 70
     1
102
RTVSPropertyOp47
 70
     1
102
RTVSPropertyOp48
 70
     1
102
RTVSPropertyOp49
 70
     1
102
RTVSPropertyOp50
 70
     1
102
RTVSPropertyOp51
 70
     0
102
RTVSPropertyOp52
 70
     0
102
RTVSPropertyOp53
 70
     1
102
RTVSPropertyOp54
 70
     1
102
RTVSPropertyOp55
 70
     1
102
RTVSPropertyOp56
 70
     1
102
RTVSPropertyOp57
 70
     1
102
RTVSPost2010Prop28
280
     0
102
RTVSPost2010PropOp28
 70
     1
102
RTVSPost2010Prop29
280
     1
102
RTVSPost2010PropOp29
 70
     1
102
RTVSPost2010Prop30
280
     1
102
RTVSPost2010PropOp30
 70
     1
102
RTVSPost2010Prop31
280
     0
102
RTVSPost2010PropOp31
 70
     1
102
RTVSPost2010Prop32
280
     0
102
RTVSPost2010PropOp32
 70
     1
102
RTVSPost2010Prop33
280
     0
102
RTVSPost2010PropOp33
 70
     1
102
RTVSPost2010Prop34
280
     0
102
RTVSPost2010PropOp34
 70
     1
102
RTVSPost2010Prop35
280
     0
102
RTVSPost2010PropOp35
 70
     1
102
RTVSPost2010Prop36
280
     0
102
RTVSPost2010PropOp36
 70
     1
102
RTVSPost2010Prop37
 90
       50
102
RTVSPost2010PropOp37
 70
     1
102
RTVSPost2010Prop38
140
0.0
102
RTVSPost2010PropOp38
 70
     1
102
RTVSPost2010Prop39
140
1.0
102
RTVSPost2010PropOp39
 70
     1
102
RTVSPost2010Prop40
 90
        0
102
RTVSPost2010PropOp40
 70
     1
102
RTVSPost2010Prop41ColorIndex
 90
       18
102
RTVSPost2010Prop41ColorRGB
 90
        0
102
RTVSPost2010PropOp41
 70
     1
102
RTVSPost2010Prop42
 90
       50
102
RTVSPost2010PropOp42
 70
     1
102
RTVSPost2010Prop43
 90
        3
102
RTVSPost2010PropOp43
 70
     1
102
RTVSPost2010Prop44ColorIndex
 90
        5
102
RTVSPost2010Prop44ColorRGB
 90
      255
102
RTVSPost2010PropOp44
 70
     1
102
RTVSPost2010Prop45
280
     0
102
RTVSPost2010PropOp45
 70
     1
102
RTVSPost2010Prop46
 90
       50
102
RTVSPost2010PropOp46
 70
     1
102
RTVSPost2010Prop47
 90
       50
102
RTVSPost2010PropOp47
 70
     1
102
RTVSPost2010Prop48
 90
       50
102
RTVSPost2010PropOp48
 70
     1
102
RTVSPost2010Prop49
280
     0
102
RTVSPost2010PropOp49
 70
     1
102
RTVSPost2010Prop50
 90
       50
102
RTVSPost2010PropOp50
 70
     1
102
RTVSPost2010Prop51ColorIndex
 90
      256
102
RTVSPost2010Prop51ColorRGB
 90
-16777216
102
RTVSPost2010PropOp51
 70
     0
102
RTVSPost2010Prop52
140
1.0
102
RTVSPost2010PropOp52
 70
     0
102
RTVSPost2010Prop53
 90
        2
102
RTVSPost2010PropOp53
 70
     1
102
RTVSPost2010Prop54
  1
strokes_ogs.tif
102
RTVSPost2010PropOp54
 70
     1
102
RTVSPost2010Prop55
280
     0
102
RTVSPost2010PropOp55
 70
     1
102
RTVSPost2010Prop56
140
1.0
102
RTVSPost2010PropOp56
 70
     1
102
RTVSPost2010Prop57
140
1.0
102
RTVSPost2010PropOp57
 70
     1
  0
XRECORD
  5
1C4
102
{ACAD_REACTORS
330
1C3
102
}
330
1C3
100
AcDbXrecord
280
     1
102
RTVSPropertyOp0
 70
     1
102
RTVSPropertyOp1
 70
     1
102
RTVSPropertyOp2
 70
     1
102
RTVSPropertyOp3
 70
     1
102
RTVSPropertyOp4
 70
     1
102
RTVSPropertyOp5
 70
     1
102
RTVSPropertyOp6
 70
     1
102
RTVSPropertyOp7
 70
     1
102
RTVSPropertyOp8
 70
     1
102
RTVSPropertyOp9
 70
     1
102
RTVSPropertyOp10
 70
     1
102
RTVSPropertyOp11
 70
     1
102
RTVSPropertyOp12
 70
     1
102
RTVSPropertyOp13
 70
     1
102
RTVSPropertyOp14
 70
     1
102
RTVSPropertyOp15
 70
     1
102
RTVSPropertyOp16
 70
     1
102
RTVSPropertyOp17
 70
     1
102
RTVSPropertyOp18
 70
     1
102
RTVSPropertyOp19
 70
     1
102
RTVSPropertyOp20
 70
     1
102
RTVSPropertyOp21
 70
     1
102
RTVSPropertyOp22
 70
     1
102
RTVSPropertyOp23
 70
     1
102
RTVSPropertyOp24
 70
     1
102
RTVSPropertyOp25
 70
     1
102
RTVSPropertyOp26
 70
     1
102
RTVSPropertyOp27
 70
     1
102
RTVSPropertyOp28
 70
     1
102
RTVSPropertyOp29
 70
     1
102
RTVSPropertyOp30
 70
     1
102
RTVSPropertyOp31
 70
     1
102
RTVSPropertyOp32
 70
     1
102
RTVSPropertyOp33
 70
     1
102
RTVSPropertyOp34
 70
     1
102
RTVSPropertyOp35
 70
     1
102
RTVSPropertyOp36
 70
     1
102
RTVSPropertyOp37
 70
     1
102
RTVSPropertyOp38
 70
     1
102
RTVSPropertyOp39
 70
     1
102
RTVSPropertyOp40
 70
     1
102
RTVSPropertyOp41
 70
     1
102
RTVSPropertyOp42
 70
     1
102
RTVSPropertyOp43
 70
     1
102
RTVSPropertyOp44
 70
     1
102
RTVSPropertyOp45
 70
     1
102
RTVSPropertyOp46
 70
     1
102
RTVSPropertyOp47
 70
     1
102
RTVSPropertyOp48
 70
     1
102
RTVSPropertyOp49
 70
     1
102
RTVSPropertyOp50
 70
     1
102
RTVSPropertyOp51
 70
     0
102
RTVSPropertyOp52
 70
     0
102
RTVSPropertyOp53
 70
     1
102
RTVSPropertyOp54
 70
     1
102
RTVSPropertyOp55
 70
     1
102
RTVSPropertyOp56
 70
     1
102
RTVSPropertyOp57
 70
     1
102
RTVSPost2010Prop28
280
     0
102
RTVSPost2010PropOp28
 70
     1
102
RTVSPost2010Prop29
280
     1
102
RTVSPost2010PropOp29
 70
     1
102
RTVSPost2010Prop30
280
     1
102
RTVSPost2010PropOp30
 70
     1
102
RTVSPost2010Prop31
280
     0
102
RTVSPost2010PropOp31
 70
     1
102
RTVSPost2010Prop32
280
     0
102
RTVSPost2010PropOp32
 70
     1
102
RTVSPost2010Prop33
280
     0
102
RTVSPost2010PropOp33
 70
     1
102
RTVSPost2010Prop34
280
     0
102
RTVSPost2010PropOp34
 70
     1
102
RTVSPost2010Prop35
280
     0
102
RTVSPost2010PropOp35
 70
     1
102
RTVSPost2010Prop36
280
     0
102
RTVSPost2010PropOp36
 70
     1
102
RTVSPost2010Prop37
 90
       50
102
RTVSPost2010PropOp37
 70
     1
102
RTVSPost2010Prop38
140
0.0
102
RTVSPost2010PropOp38
 70
     1
102
RTVSPost2010Prop39
140
1.0
102
RTVSPost2010PropOp39
 70
     1
102
RTVSPost2010Prop40
 90
        0
102
RTVSPost2010PropOp40
 70
     1
102
RTVSPost2010Prop41ColorIndex
 90
       18
102
RTVSPost2010Prop41ColorRGB
 90
        0
102
RTVSPost2010PropOp41
 70
     1
102
RTVSPost2010Prop42
 90
       50
102
RTVSPost2010PropOp42
 70
     1
102
RTVSPost2010Prop43
 90
        3
102
RTVSPost2010PropOp43
 70
     1
102
RTVSPost2010Prop44ColorIndex
 90
        5
102
RTVSPost2010Prop44ColorRGB
 90
      255
102
RTVSPost2010PropOp44
 70
     1
102
RTVSPost2010Prop45
280
     0
102
RTVSPost2010PropOp45
 70
     1
102
RTVSPost2010Prop46
 90
       50
102
RTVSPost2010PropOp46
 70
     1
102
RTVSPost2010Prop47
 90
       50
102
RTVSPost2010PropOp47
 70
     1
102
RTVSPost2010Prop48
 90
       50
102
RTVSPost2010PropOp48
 70
     1
102
RTVSPost2010Prop49
280
     0
102
RTVSPost2010PropOp49
 70
     1
102
RTVSPost2010Prop50
 90
       50
102
RTVSPost2010PropOp50
 70
     1
102
RTVSPost2010Prop51ColorIndex
 90
      256
102
RTVSPost2010Prop51ColorRGB
 90
-16777216
102
RTVSPost2010PropOp51
 70
     0
102
RTVSPost2010Prop52
140
1.0
102
RTVSPost2010PropOp52
 70
     0
102
RTVSPost2010Prop53
 90
        2
102
RTVSPost2010PropOp53
 70
     1
102
RTVSPost2010Prop54
  1
strokes_ogs.tif
102
RTVSPost2010PropOp54
 70
     1
102
RTVSPost2010Prop55
280
     0
102
RTVSPost2010PropOp55
 70
     1
102
RTVSPost2010Prop56
140
1.0
102
RTVSPost2010PropOp56
 70
     1
102
RTVSPost2010Prop57
140
1.0
102
RTVSPost2010PropOp57
 70
     1
  0
XRECORD
  5
1D4
102
{ACAD_REACTORS
330
1D3
102
}
330
1D3
100
AcDbXrecord
280
     1
102
RTVSPropertyOp0
 70
     0
102
RTVSPropertyOp1
 70
     0
102
RTVSPropertyOp2
 70
     0
102
RTVSPropertyOp3
 70
     0
102
RTVSPropertyOp4
 70
     0
102
RTVSPropertyOp5
 70
     0
102
RTVSPropertyOp6
 70
     0
102
RTVSPropertyOp7
 70
     0
102
RTVSPropertyOp8
 70
     0
102
RTVSPropertyOp9
 70
     0
102
RTVSPropertyOp10
 70
     0
102
RTVSPropertyOp11
 70
     0
102
RTVSPropertyOp12
 70
     0
102
RTVSPropertyOp13
 70
     0
102
RTVSPropertyOp14
 70
     2
102
RTVSPropertyOp15
 70
     0
102
RTVSPropertyOp16
 70
     0
102
RTVSPropertyOp17
 70
     0
102
RTVSPropertyOp18
 70
     0
102
RTVSPropertyOp19
 70
     0
102
RTVSPropertyOp20
 70
     0
102
RTVSPropertyOp21
 70
     0
102
RTVSPropertyOp22
 70
     0
102
RTVSPropertyOp23
 70
     0
102
RTVSPropertyOp24
 70
     0
102
RTVSPropertyOp25
 70
     0
102
RTVSPropertyOp26
 70
     0
102
RTVSPropertyOp27
 70
     0
102
RTVSPropertyOp28
 70
     0
102
RTVSPropertyOp29
 70
     0
102
RTVSPropertyOp30
 70
     0
102
RTVSPropertyOp31
 70
     0
102
RTVSPropertyOp32
 70
     0
102
RTVSPropertyOp33
 70
     0
102
RTVSPropertyOp34
 70
     0
102
RTVSPropertyOp35
 70
     0
102
RTVSPropertyOp36
 70
     0
102
RTVSPropertyOp37
 70
     0
102
RTVSPropertyOp38
 70
     0
102
RTVSPropertyOp39
 70
     0
102
RTVSPropertyOp40
 70
     0
102
RTVSPropertyOp41
 70
     0
102
RTVSPropertyOp42
 70
     0
102
RTVSPropertyOp43
 70
     0
102
RTVSPropertyOp44
 70
     0
102
RTVSPropertyOp45
 70
     0
102
RTVSPropertyOp46
 70
     0
102
RTVSPropertyOp47
 70
     0
102
RTVSPropertyOp48
 70
     0
102
RTVSPropertyOp49
 70
     0
102
RTVSPropertyOp50
 70
     0
102
RTVSPropertyOp51
 70
     0
102
RTVSPropertyOp52
 70
     0
102
RTVSPropertyOp53
 70
     0
102
RTVSPropertyOp54
 70
     0
102
RTVSPropertyOp55
 70
     0
102
RTVSPropertyOp56
 70
     0
102
RTVSPropertyOp57
 70
     0
102
RTVSPost2010Prop28
280
     0
102
RTVSPost2010PropOp28
 70
     0
102
RTVSPost2010Prop29
280
     1
102
RTVSPost2010PropOp29
 70
     0
102
RTVSPost2010Prop30
280
     1
102
RTVSPost2010PropOp30
 70
     0
102
RTVSPost2010Prop31
280
     0
102
RTVSPost2010PropOp31
 70
     0
102
RTVSPost2010Prop32
280
     0
102
RTVSPost2010PropOp32
 70
     0
102
RTVSPost2010Prop33
280
     0
102
RTVSPost2010PropOp33
 70
     0
102
RTVSPost2010Prop34
280
     0
102
RTVSPost2010PropOp34
 70
     0
102
RTVSPost2010Prop35
280
     0
102
RTVSPost2010PropOp35
 70
     0
102
RTVSPost2010Prop36
280
     0
102
RTVSPost2010PropOp36
 70
     0
102
RTVSPost2010Prop37
 90
       50
102
RTVSPost2010PropOp37
 70
     0
102
RTVSPost2010Prop38
140
0.0
102
RTVSPost2010PropOp38
 70
     0
102
RTVSPost2010Prop39
140
1.0
102
RTVSPost2010PropOp39
 70
     0
102
RTVSPost2010Prop40
 90
        0
102
RTVSPost2010PropOp40
 70
     0
102
RTVSPost2010Prop41ColorIndex
 90
       18
102
RTVSPost2010Prop41ColorRGB
 90
        0
102
RTVSPost2010PropOp41
 70
     0
102
RTVSPost2010Prop42
 90
       50
102
RTVSPost2010PropOp42
 70
     0
102
RTVSPost2010Prop43
 90
        3
102
RTVSPost2010PropOp43
 70
     0
102
RTVSPost2010Prop44ColorIndex
 90
        5
102
RTVSPost2010Prop44ColorRGB
 90
      255
102
RTVSPost2010PropOp44
 70
     0
102
RTVSPost2010Prop45
280
     0
102
RTVSPost2010PropOp45
 70
     0
102
RTVSPost2010Prop46
 90
       50
102
RTVSPost2010PropOp46
 70
     0
102
RTVSPost2010Prop47
 90
       50
102
RTVSPost2010PropOp47
 70
     0
102
RTVSPost2010Prop48
 90
       50
102
RTVSPost2010PropOp48
 70
     0
102
RTVSPost2010Prop49
280
     0
102
RTVSPost2010PropOp49
 70
     0
102
RTVSPost2010Prop50
 90
       50
102
RTVSPost2010PropOp50
 70
     0
102
RTVSPost2010Prop51ColorIndex
 90
      256
102
RTVSPost2010Prop51ColorRGB
 90
-16777216
102
RTVSPost2010PropOp51
 70
     0
102
RTVSPost2010Prop52
140
1.0
102
RTVSPost2010PropOp52
 70
     0
102
RTVSPost2010Prop53
 90
        2
102
RTVSPost2010PropOp53
 70
     0
102
RTVSPost2010Prop54
  1
strokes_ogs.tif
102
RTVSPost2010PropOp54
 70
     0
102
RTVSPost2010Prop55
280
     0
102
RTVSPost2010PropOp55
 70
     0
102
RTVSPost2010Prop56
140
1.0
102
RTVSPost2010PropOp56
 70
     0
102
RTVSPost2010Prop57
140
1.0
102
RTVSPost2010PropOp57
 70
     0
  0
XRECORD
  5
1CC
102
{ACAD_REACTORS
330
1CB
102
}
330
1CB
100
AcDbXrecord
280
     1
102
RTVSPropertyOp0
 70
     1
102
RTVSPropertyOp1
 70
     1
102
RTVSPropertyOp2
 70
     1
102
RTVSPropertyOp3
 70
     1
102
RTVSPropertyOp4
 70
     1
102
RTVSPropertyOp5
 70
     1
102
RTVSPropertyOp6
 70
     1
102
RTVSPropertyOp7
 70
     1
102
RTVSPropertyOp8
 70
     1
102
RTVSPropertyOp9
 70
     1
102
RTVSPropertyOp10
 70
     1
102
RTVSPropertyOp11
 70
     1
102
RTVSPropertyOp12
 70
     1
102
RTVSPropertyOp13
 70
     1
102
RTVSPropertyOp14
 70
     1
102
RTVSPropertyOp15
 70
     1
102
RTVSPropertyOp16
 70
     1
102
RTVSPropertyOp17
 70
     1
102
RTVSPropertyOp18
 70
     1
102
RTVSPropertyOp19
 70
     1
102
RTVSPropertyOp20
 70
     1
102
RTVSPropertyOp21
 70
     1
102
RTVSPropertyOp22
 70
     1
102
RTVSPropertyOp23
 70
     1
102
RTVSPropertyOp24
 70
     1
102
RTVSPropertyOp25
 70
     1
102
RTVSPropertyOp26
 70
     1
102
RTVSPropertyOp27
 70
     1
102
RTVSPropertyOp28
 70
     1
102
RTVSPropertyOp29
 70
     1
102
RTVSPropertyOp30
 70
     1
102
RTVSPropertyOp31
 70
     1
102
RTVSPropertyOp32
 70
     1
102
RTVSPropertyOp33
 70
     1
102
RTVSPropertyOp34
 70
     1
102
RTVSPropertyOp35
 70
     1
102
RTVSPropertyOp36
 70
     1
102
RTVSPropertyOp37
 70
     1
102
RTVSPropertyOp38
 70
     1
102
RTVSPropertyOp39
 70
     1
102
RTVSPropertyOp40
 70
     1
102
RTVSPropertyOp41
 70
     1
102
RTVSPropertyOp42
 70
     1
102
RTVSPropertyOp43
 70
     1
102
RTVSPropertyOp44
 70
     1
102
RTVSPropertyOp45
 70
     1
102
RTVSPropertyOp46
 70
     1
102
RTVSPropertyOp47
 70
     1
102
RTVSPropertyOp48
 70
     1
102
RTVSPropertyOp49
 70
     1
102
RTVSPropertyOp50
 70
     1
102
RTVSPropertyOp51
 70
     0
102
RTVSPropertyOp52
 70
     0
102
RTVSPropertyOp53
 70
     1
102
RTVSPropertyOp54
 70
     1
102
RTVSPropertyOp55
 70
     1
102
RTVSPropertyOp56
 70
     1
102
RTVSPropertyOp57
 70
     1
102
RTVSPost2010Prop28
280
     0
102
RTVSPost2010PropOp28
 70
     1
102
RTVSPost2010Prop29
280
     1
102
RTVSPost2010PropOp29
 70
     1
102
RTVSPost2010Prop30
280
     1
102
RTVSPost2010PropOp30
 70
     1
102
RTVSPost2010Prop31
280
     0
102
RTVSPost2010PropOp31
 70
     1
102
RTVSPost2010Prop32
280
     0
102
RTVSPost2010PropOp32
 70
     1
102
RTVSPost2010Prop33
280
     0
102
RTVSPost2010PropOp33
 70
     1
102
RTVSPost2010Prop34
280
     0
102
RTVSPost2010PropOp34
 70
     1
102
RTVSPost2010Prop35
280
     0
102
RTVSPost2010PropOp35
 70
     1
102
RTVSPost2010Prop36
280
     0
102
RTVSPost2010PropOp36
 70
     1
102
RTVSPost2010Prop37
 90
       50
102
RTVSPost2010PropOp37
 70
     1
102
RTVSPost2010Prop38
140
0.0
102
RTVSPost2010PropOp38
 70
     1
102
RTVSPost2010Prop39
140
1.0
102
RTVSPost2010PropOp39
 70
     1
102
RTVSPost2010Prop40
 90
        0
102
RTVSPost2010PropOp40
 70
     1
102
RTVSPost2010Prop41ColorIndex
 90
       18
102
RTVSPost2010Prop41ColorRGB
 90
        0
102
RTVSPost2010PropOp41
 70
     1
102
RTVSPost2010Prop42
 90
       50
102
RTVSPost2010PropOp42
 70
     1
102
RTVSPost2010Prop43
 90
        3
102
RTVSPost2010PropOp43
 70
     1
102
RTVSPost2010Prop44ColorIndex
 90
        5
102
RTVSPost2010Prop44ColorRGB
 90
      255
102
RTVSPost2010PropOp44
 70
     1
102
RTVSPost2010Prop45
280
     0
102
RTVSPost2010PropOp45
 70
     1
102
RTVSPost2010Prop46
 90
       50
102
RTVSPost2010PropOp46
 70
     1
102
RTVSPost2010Prop47
 90
       50
102
RTVSPost2010PropOp47
 70
     1
102
RTVSPost2010Prop48
 90
       50
102
RTVSPost2010PropOp48
 70
     1
102
RTVSPost2010Prop49
280
     0
102
RTVSPost2010PropOp49
 70
     1
102
RTVSPost2010Prop50
 90
       50
102
RTVSPost2010PropOp50
 70
     1
102
RTVSPost2010Prop51ColorIndex
 90
      256
102
RTVSPost2010Prop51ColorRGB
 90
-16777216
102
RTVSPost2010PropOp51
 70
     0
102
RTVSPost2010Prop52
140
1.0
102
RTVSPost2010PropOp52
 70
     0
102
RTVSPost2010Prop53
 90
        2
102
RTVSPost2010PropOp53
 70
     1
102
RTVSPost2010Prop54
  1
strokes_ogs.tif
102
RTVSPost2010PropOp54
 70
     1
102
RTVSPost2010Prop55
280
     0
102
RTVSPost2010PropOp55
 70
     1
102
RTVSPost2010Prop56
140
1.0
102
RTVSPost2010PropOp56
 70
     1
102
RTVSPost2010Prop57
140
1.0
102
RTVSPost2010PropOp57
 70
     1
  0
XRECORD
  5
1B0
102
{ACAD_REACTORS
330
1AF
102
}
330
1AF
100
AcDbXrecord
280
     1
102
RTVSPropertyOp0
 70
     1
102
RTVSPropertyOp1
 70
     1
102
RTVSPropertyOp2
 70
     1
102
RTVSPropertyOp3
 70
     1
102
RTVSPropertyOp4
 70
     1
102
RTVSPropertyOp5
 70
     1
102
RTVSPropertyOp6
 70
     1
102
RTVSPropertyOp7
 70
     1
102
RTVSPropertyOp8
 70
     1
102
RTVSPropertyOp9
 70
     1
102
RTVSPropertyOp10
 70
     1
102
RTVSPropertyOp11
 70
     1
102
RTVSPropertyOp12
 70
     1
102
RTVSPropertyOp13
 70
     1
102
RTVSPropertyOp14
 70
     1
102
RTVSPropertyOp15
 70
     1
102
RTVSPropertyOp16
 70
     1
102
RTVSPropertyOp17
 70
     1
102
RTVSPropertyOp18
 70
     1
102
RTVSPropertyOp19
 70
     1
102
RTVSPropertyOp20
 70
     1
102
RTVSPropertyOp21
 70
     1
102
RTVSPropertyOp22
 70
     1
102
RTVSPropertyOp23
 70
     1
102
RTVSPropertyOp24
 70
     1
102
RTVSPropertyOp25
 70
     1
102
RTVSPropertyOp26
 70
     1
102
RTVSPropertyOp27
 70
     1
102
RTVSPropertyOp28
 70
     1
102
RTVSPropertyOp29
 70
     1
102
RTVSPropertyOp30
 70
     1
102
RTVSPropertyOp31
 70
     1
102
RTVSPropertyOp32
 70
     1
102
RTVSPropertyOp33
 70
     1
102
RTVSPropertyOp34
 70
     1
102
RTVSPropertyOp35
 70
     1
102
RTVSPropertyOp36
 70
     1
102
RTVSPropertyOp37
 70
     1
102
RTVSPropertyOp38
 70
     1
102
RTVSPropertyOp39
 70
     1
102
RTVSPropertyOp40
 70
     1
102
RTVSPropertyOp41
 70
     1
102
RTVSPropertyOp42
 70
     1
102
RTVSPropertyOp43
 70
     1
102
RTVSPropertyOp44
 70
     1
102
RTVSPropertyOp45
 70
     1
102
RTVSPropertyOp46
 70
     1
102
RTVSPropertyOp47
 70
     1
102
RTVSPropertyOp48
 70
     1
102
RTVSPropertyOp49
 70
     1
102
RTVSPropertyOp50
 70
     1
102
RTVSPropertyOp51
 70
     0
102
RTVSPropertyOp52
 70
     0
102
RTVSPropertyOp53
 70
     1
102
RTVSPropertyOp54
 70
     1
102
RTVSPropertyOp55
 70
     1
102
RTVSPropertyOp56
 70
     1
102
RTVSPropertyOp57
 70
     1
102
RTVSPost2010Prop28
280
     0
102
RTVSPost2010PropOp28
 70
     1
102
RTVSPost2010Prop29
280
     1
102
RTVSPost2010PropOp29
 70
     1
102
RTVSPost2010Prop30
280
     1
102
RTVSPost2010PropOp30
 70
     1
102
RTVSPost2010Prop31
280
     0
102
RTVSPost2010PropOp31
 70
     1
102
RTVSPost2010Prop32
280
     0
102
RTVSPost2010PropOp32
 70
     1
102
RTVSPost2010Prop33
280
     0
102
RTVSPost2010PropOp33
 70
     1
102
RTVSPost2010Prop34
280
     0
102
RTVSPost2010PropOp34
 70
     1
102
RTVSPost2010Prop35
280
     0
102
RTVSPost2010PropOp35
 70
     1
102
RTVSPost2010Prop36
280
     0
102
RTVSPost2010PropOp36
 70
     1
102
RTVSPost2010Prop37
 90
       50
102
RTVSPost2010PropOp37
 70
     1
102
RTVSPost2010Prop38
140
0.0
102
RTVSPost2010PropOp38
 70
     1
102
RTVSPost2010Prop39
140
1.0
102
RTVSPost2010PropOp39
 70
     1
102
RTVSPost2010Prop40
 90
        0
102
RTVSPost2010PropOp40
 70
     1
102
RTVSPost2010Prop41ColorIndex
 90
       18
102
RTVSPost2010Prop41ColorRGB
 90
        0
102
RTVSPost2010PropOp41
 70
     1
102
RTVSPost2010Prop42
 90
       50
102
RTVSPost2010PropOp42
 70
     1
102
RTVSPost2010Prop43
 90
        3
102
RTVSPost2010PropOp43
 70
     1
102
RTVSPost2010Prop44ColorIndex
 90
        5
102
RTVSPost2010Prop44ColorRGB
 90
      255
102
RTVSPost2010PropOp44
 70
     1
102
RTVSPost2010Prop45
280
     0
102
RTVSPost2010PropOp45
 70
     1
102
RTVSPost2010Prop46
 90
       50
102
RTVSPost2010PropOp46
 70
     1
102
RTVSPost2010Prop47
 90
       50
102
RTVSPost2010PropOp47
 70
     1
102
RTVSPost2010Prop48
 90
       50
102
RTVSPost2010PropOp48
 70
     1
102
RTVSPost2010Prop49
280
     0
102
RTVSPost2010PropOp49
 70
     1
102
RTVSPost2010Prop50
 90
       50
102
RTVSPost2010PropOp50
 70
     1
102
RTVSPost2010Prop51ColorIndex
 90
      256
102
RTVSPost2010Prop51ColorRGB
 90
-16777216
102
RTVSPost2010PropOp51
 70
     0
102
RTVSPost2010Prop52
140
1.0
102
RTVSPost2010PropOp52
 70
     0
102
RTVSPost2010Prop53
 90
        2
102
RTVSPost2010PropOp53
 70
     1
102
RTVSPost2010Prop54
  1
strokes_ogs.tif
102
RTVSPost2010PropOp54
 70
     1
102
RTVSPost2010Prop55
280
     0
102
RTVSPost2010PropOp55
 70
     1
102
RTVSPost2010Prop56
140
1.0
102
RTVSPost2010PropOp56
 70
     1
102
RTVSPost2010Prop57
140
1.0
102
RTVSPost2010PropOp57
 70
     1
  0
XRECORD
  5
1B2
102
{ACAD_REACTORS
330
1B1
102
}
330
1B1
100
AcDbXrecord
280
     1
102
RTVSPropertyOp0
 70
     1
102
RTVSPropertyOp1
 70
     1
102
RTVSPropertyOp2
 70
     1
102
RTVSPropertyOp3
 70
     1
102
RTVSPropertyOp4
 70
     1
102
RTVSPropertyOp5
 70
     1
102
RTVSPropertyOp6
 70
     1
102
RTVSPropertyOp7
 70
     1
102
RTVSPropertyOp8
 70
     1
102
RTVSPropertyOp9
 70
     1
102
RTVSPropertyOp10
 70
     1
102
RTVSPropertyOp11
 70
     1
102
RTVSPropertyOp12
 70
     1
102
RTVSPropertyOp13
 70
     1
102
RTVSPropertyOp14
 70
     1
102
RTVSPropertyOp15
 70
     1
102
RTVSPropertyOp16
 70
     1
102
RTVSPropertyOp17
 70
     1
102
RTVSPropertyOp18
 70
     1
102
RTVSPropertyOp19
 70
     1
102
RTVSPropertyOp20
 70
     1
102
RTVSPropertyOp21
 70
     1
102
RTVSPropertyOp22
 70
     1
102
RTVSPropertyOp23
 70
     1
102
RTVSPropertyOp24
 70
     1
102
RTVSPropertyOp25
 70
     1
102
RTVSPropertyOp26
 70
     1
102
RTVSPropertyOp27
 70
     1
102
RTVSPropertyOp28
 70
     1
102
RTVSPropertyOp29
 70
     1
102
RTVSPropertyOp30
 70
     1
102
RTVSPropertyOp31
 70
     1
102
RTVSPropertyOp32
 70
     1
102
RTVSPropertyOp33
 70
     1
102
RTVSPropertyOp34
 70
     1
102
RTVSPropertyOp35
 70
     1
102
RTVSPropertyOp36
 70
     1
102
RTVSPropertyOp37
 70
     1
102
RTVSPropertyOp38
 70
     1
102
RTVSPropertyOp39
 70
     1
102
RTVSPropertyOp40
 70
     1
102
RTVSPropertyOp41
 70
     1
102
RTVSPropertyOp42
 70
     1
102
RTVSPropertyOp43
 70
     1
102
RTVSPropertyOp44
 70
     1
102
RTVSPropertyOp45
 70
     1
102
RTVSPropertyOp46
 70
     1
102
RTVSPropertyOp47
 70
     1
102
RTVSPropertyOp48
 70
     1
102
RTVSPropertyOp49
 70
     1
102
RTVSPropertyOp50
 70
     1
102
RTVSPropertyOp51
 70
     0
102
RTVSPropertyOp52
 70
     0
102
RTVSPropertyOp53
 70
     1
102
RTVSPropertyOp54
 70
     1
102
RTVSPropertyOp55
 70
     1
102
RTVSPropertyOp56
 70
     1
102
RTVSPropertyOp57
 70
     1
102
RTVSPost2010Prop28
280
     0
102
RTVSPost2010PropOp28
 70
     1
102
RTVSPost2010Prop29
280
     1
102
RTVSPost2010PropOp29
 70
     1
102
RTVSPost2010Prop30
280
     1
102
RTVSPost2010PropOp30
 70
     1
102
RTVSPost2010Prop31
280
     0
102
RTVSPost2010PropOp31
 70
     1
102
RTVSPost2010Prop32
280
     0
102
RTVSPost2010PropOp32
 70
     1
102
RTVSPost2010Prop33
280
     0
102
RTVSPost2010PropOp33
 70
     1
102
RTVSPost2010Prop34
280
     0
102
RTVSPost2010PropOp34
 70
     1
102
RTVSPost2010Prop35
280
     0
102
RTVSPost2010PropOp35
 70
     1
102
RTVSPost2010Prop36
280
     0
102
RTVSPost2010PropOp36
 70
     1
102
RTVSPost2010Prop37
 90
       50
102
RTVSPost2010PropOp37
 70
     1
102
RTVSPost2010Prop38
140
0.0
102
RTVSPost2010PropOp38
 70
     1
102
RTVSPost2010Prop39
140
1.0
102
RTVSPost2010PropOp39
 70
     1
102
RTVSPost2010Prop40
 90
        0
102
RTVSPost2010PropOp40
 70
     1
102
RTVSPost2010Prop41ColorIndex
 90
       18
102
RTVSPost2010Prop41ColorRGB
 90
        0
102
RTVSPost2010PropOp41
 70
     1
102
RTVSPost2010Prop42
 90
       50
102
RTVSPost2010PropOp42
 70
     1
102
RTVSPost2010Prop43
 90
        3
102
RTVSPost2010PropOp43
 70
     1
102
RTVSPost2010Prop44ColorIndex
 90
        5
102
RTVSPost2010Prop44ColorRGB
 90
      255
102
RTVSPost2010PropOp44
 70
     1
102
RTVSPost2010Prop45
280
     0
102
RTVSPost2010PropOp45
 70
     1
102
RTVSPost2010Prop46
 90
       50
102
RTVSPost2010PropOp46
 70
     1
102
RTVSPost2010Prop47
 90
       50
102
RTVSPost2010PropOp47
 70
     1
102
RTVSPost2010Prop48
 90
       50
102
RTVSPost2010PropOp48
 70
     1
102
RTVSPost2010Prop49
280
     0
102
RTVSPost2010PropOp49
 70
     1
102
RTVSPost2010Prop50
 90
       50
102
RTVSPost2010PropOp50
 70
     1
102
RTVSPost2010Prop51ColorIndex
 90
      256
102
RTVSPost2010Prop51ColorRGB
 90
-16777216
102
RTVSPost2010PropOp51
 70
     0
102
RTVSPost2010Prop52
140
1.0
102
RTVSPost2010PropOp52
 70
     0
102
RTVSPost2010Prop53
 90
        2
102
RTVSPost2010PropOp53
 70
     1
102
RTVSPost2010Prop54
  1
strokes_ogs.tif
102
RTVSPost2010PropOp54
 70
     1
102
RTVSPost2010Prop55
280
     0
102
RTVSPost2010PropOp55
 70
     1
102
RTVSPost2010Prop56
140
1.0
102
RTVSPost2010PropOp56
 70
     1
102
RTVSPost2010Prop57
140
1.0
102
RTVSPost2010PropOp57
 70
     1
  0
XRECORD
  5
1B4
102
{ACAD_REACTORS
330
1B3
102
}
330
1B3
100
AcDbXrecord
280
     1
102
RTVSPropertyOp0
 70
     1
102
RTVSPropertyOp1
 70
     1
102
RTVSPropertyOp2
 70
     1
102
RTVSPropertyOp3
 70
     1
102
RTVSPropertyOp4
 70
     1
102
RTVSPropertyOp5
 70
     1
102
RTVSPropertyOp6
 70
     1
102
RTVSPropertyOp7
 70
     1
102
RTVSPropertyOp8
 70
     1
102
RTVSPropertyOp9
 70
     1
102
RTVSPropertyOp10
 70
     1
102
RTVSPropertyOp11
 70
     1
102
RTVSPropertyOp12
 70
     1
102
RTVSPropertyOp13
 70
     1
102
RTVSPropertyOp14
 70
     1
102
RTVSPropertyOp15
 70
     1
102
RTVSPropertyOp16
 70
     1
102
RTVSPropertyOp17
 70
     1
102
RTVSPropertyOp18
 70
     1
102
RTVSPropertyOp19
 70
     1
102
RTVSPropertyOp20
 70
     1
102
RTVSPropertyOp21
 70
     1
102
RTVSPropertyOp22
 70
     1
102
RTVSPropertyOp23
 70
     1
102
RTVSPropertyOp24
 70
     1
102
RTVSPropertyOp25
 70
     1
102
RTVSPropertyOp26
 70
     1
102
RTVSPropertyOp27
 70
     1
102
RTVSPropertyOp28
 70
     1
102
RTVSPropertyOp29
 70
     1
102
RTVSPropertyOp30
 70
     1
102
RTVSPropertyOp31
 70
     1
102
RTVSPropertyOp32
 70
     1
102
RTVSPropertyOp33
 70
     1
102
RTVSPropertyOp34
 70
     1
102
RTVSPropertyOp35
 70
     1
102
RTVSPropertyOp36
 70
     1
102
RTVSPropertyOp37
 70
     1
102
RTVSPropertyOp38
 70
     1
102
RTVSPropertyOp39
 70
     1
102
RTVSPropertyOp40
 70
     1
102
RTVSPropertyOp41
 70
     1
102
RTVSPropertyOp42
 70
     1
102
RTVSPropertyOp43
 70
     1
102
RTVSPropertyOp44
 70
     1
102
RTVSPropertyOp45
 70
     1
102
RTVSPropertyOp46
 70
     1
102
RTVSPropertyOp47
 70
     1
102
RTVSPropertyOp48
 70
     1
102
RTVSPropertyOp49
 70
     1
102
RTVSPropertyOp50
 70
     1
102
RTVSPropertyOp51
 70
     0
102
RTVSPropertyOp52
 70
     0
102
RTVSPropertyOp53
 70
     1
102
RTVSPropertyOp54
 70
     1
102
RTVSPropertyOp55
 70
     1
102
RTVSPropertyOp56
 70
     1
102
RTVSPropertyOp57
 70
     1
102
RTVSPost2010Prop28
280
     0
102
RTVSPost2010PropOp28
 70
     1
102
RTVSPost2010Prop29
280
     1
102
RTVSPost2010PropOp29
 70
     1
102
RTVSPost2010Prop30
280
     1
102
RTVSPost2010PropOp30
 70
     1
102
RTVSPost2010Prop31
280
     0
102
RTVSPost2010PropOp31
 70
     1
102
RTVSPost2010Prop32
280
     0
102
RTVSPost2010PropOp32
 70
     1
102
RTVSPost2010Prop33
280
     0
102
RTVSPost2010PropOp33
 70
     1
102
RTVSPost2010Prop34
280
     0
102
RTVSPost2010PropOp34
 70
     1
102
RTVSPost2010Prop35
280
     0
102
RTVSPost2010PropOp35
 70
     1
102
RTVSPost2010Prop36
280
     0
102
RTVSPost2010PropOp36
 70
     1
102
RTVSPost2010Prop37
 90
       50
102
RTVSPost2010PropOp37
 70
     1
102
RTVSPost2010Prop38
140
0.0
102
RTVSPost2010PropOp38
 70
     1
102
RTVSPost2010Prop39
140
1.0
102
RTVSPost2010PropOp39
 70
     1
102
RTVSPost2010Prop40
 90
        0
102
RTVSPost2010PropOp40
 70
     1
102
RTVSPost2010Prop41ColorIndex
 90
       18
102
RTVSPost2010Prop41ColorRGB
 90
        0
102
RTVSPost2010PropOp41
 70
     1
102
RTVSPost2010Prop42
 90
       50
102
RTVSPost2010PropOp42
 70
     1
102
RTVSPost2010Prop43
 90
        3
102
RTVSPost2010PropOp43
 70
     1
102
RTVSPost2010Prop44ColorIndex
 90
        5
102
RTVSPost2010Prop44ColorRGB
 90
      255
102
RTVSPost2010PropOp44
 70
     1
102
RTVSPost2010Prop45
280
     0
102
RTVSPost2010PropOp45
 70
     1
102
RTVSPost2010Prop46
 90
       50
102
RTVSPost2010PropOp46
 70
     1
102
RTVSPost2010Prop47
 90
       50
102
RTVSPost2010PropOp47
 70
     1
102
RTVSPost2010Prop48
 90
       50
102
RTVSPost2010PropOp48
 70
     1
102
RTVSPost2010Prop49
280
     0
102
RTVSPost2010PropOp49
 70
     1
102
RTVSPost2010Prop50
 90
       50
102
RTVSPost2010PropOp50
 70
     1
102
RTVSPost2010Prop51ColorIndex
 90
      256
102
RTVSPost2010Prop51ColorRGB
 90
-16777216
102
RTVSPost2010PropOp51
 70
     0
102
RTVSPost2010Prop52
140
1.0
102
RTVSPost2010PropOp52
 70
     0
102
RTVSPost2010Prop53
 90
        2
102
RTVSPost2010PropOp53
 70
     1
102
RTVSPost2010Prop54
  1
strokes_ogs.tif
102
RTVSPost2010PropOp54
 70
     1
102
RTVSPost2010Prop55
280
     0
102
RTVSPost2010PropOp55
 70
     1
102
RTVSPost2010Prop56
140
1.0
102
RTVSPost2010PropOp56
 70
     1
102
RTVSPost2010Prop57
140
1.0
102
RTVSPost2010PropOp57
 70
     1
  0
XRECORD
  5
1B6
102
{ACAD_REACTORS
330
1B5
102
}
330
1B5
100
AcDbXrecord
280
     1
102
RTVSPropertyOp0
 70
     1
102
RTVSPropertyOp1
 70
     1
102
RTVSPropertyOp2
 70
     1
102
RTVSPropertyOp3
 70
     1
102
RTVSPropertyOp4
 70
     1
102
RTVSPropertyOp5
 70
     1
102
RTVSPropertyOp6
 70
     1
102
RTVSPropertyOp7
 70
     1
102
RTVSPropertyOp8
 70
     1
102
RTVSPropertyOp9
 70
     1
102
RTVSPropertyOp10
 70
     1
102
RTVSPropertyOp11
 70
     1
102
RTVSPropertyOp12
 70
     1
102
RTVSPropertyOp13
 70
     1
102
RTVSPropertyOp14
 70
     1
102
RTVSPropertyOp15
 70
     1
102
RTVSPropertyOp16
 70
     1
102
RTVSPropertyOp17
 70
     1
102
RTVSPropertyOp18
 70
     1
102
RTVSPropertyOp19
 70
     1
102
RTVSPropertyOp20
 70
     1
102
RTVSPropertyOp21
 70
     1
102
RTVSPropertyOp22
 70
     1
102
RTVSPropertyOp23
 70
     1
102
RTVSPropertyOp24
 70
     1
102
RTVSPropertyOp25
 70
     1
102
RTVSPropertyOp26
 70
     1
102
RTVSPropertyOp27
 70
     1
102
RTVSPropertyOp28
 70
     1
102
RTVSPropertyOp29
 70
     1
102
RTVSPropertyOp30
 70
     1
102
RTVSPropertyOp31
 70
     1
102
RTVSPropertyOp32
 70
     1
102
RTVSPropertyOp33
 70
     1
102
RTVSPropertyOp34
 70
     1
102
RTVSPropertyOp35
 70
     1
102
RTVSPropertyOp36
 70
     1
102
RTVSPropertyOp37
 70
     1
102
RTVSPropertyOp38
 70
     1
102
RTVSPropertyOp39
 70
     1
102
RTVSPropertyOp40
 70
     1
102
RTVSPropertyOp41
 70
     1
102
RTVSPropertyOp42
 70
     1
102
RTVSPropertyOp43
 70
     1
102
RTVSPropertyOp44
 70
     1
102
RTVSPropertyOp45
 70
     1
102
RTVSPropertyOp46
 70
     1
102
RTVSPropertyOp47
 70
     1
102
RTVSPropertyOp48
 70
     1
102
RTVSPropertyOp49
 70
     1
102
RTVSPropertyOp50
 70
     1
102
RTVSPropertyOp51
 70
     0
102
RTVSPropertyOp52
 70
     0
102
RTVSPropertyOp53
 70
     1
102
RTVSPropertyOp54
 70
     1
102
RTVSPropertyOp55
 70
     1
102
RTVSPropertyOp56
 70
     1
102
RTVSPropertyOp57
 70
     1
102
RTVSPost2010Prop28
280
     0
102
RTVSPost2010PropOp28
 70
     1
102
RTVSPost2010Prop29
280
     1
102
RTVSPost2010PropOp29
 70
     1
102
RTVSPost2010Prop30
280
     1
102
RTVSPost2010PropOp30
 70
     1
102
RTVSPost2010Prop31
280
     0
102
RTVSPost2010PropOp31
 70
     1
102
RTVSPost2010Prop32
280
     0
102
RTVSPost2010PropOp32
 70
     1
102
RTVSPost2010Prop33
280
     0
102
RTVSPost2010PropOp33
 70
     1
102
RTVSPost2010Prop34
280
     0
102
RTVSPost2010PropOp34
 70
     1
102
RTVSPost2010Prop35
280
     0
102
RTVSPost2010PropOp35
 70
     1
102
RTVSPost2010Prop36
280
     0
102
RTVSPost2010PropOp36
 70
     1
102
RTVSPost2010Prop37
 90
       50
102
RTVSPost2010PropOp37
 70
     1
102
RTVSPost2010Prop38
140
0.0
102
RTVSPost2010PropOp38
 70
     1
102
RTVSPost2010Prop39
140
1.0
102
RTVSPost2010PropOp39
 70
     1
102
RTVSPost2010Prop40
 90
        0
102
RTVSPost2010PropOp40
 70
     1
102
RTVSPost2010Prop41ColorIndex
 90
       18
102
RTVSPost2010Prop41ColorRGB
 90
        0
102
RTVSPost2010PropOp41
 70
     1
102
RTVSPost2010Prop42
 90
       50
102
RTVSPost2010PropOp42
 70
     1
102
RTVSPost2010Prop43
 90
        3
102
RTVSPost2010PropOp43
 70
     1
102
RTVSPost2010Prop44ColorIndex
 90
        5
102
RTVSPost2010Prop44ColorRGB
 90
      255
102
RTVSPost2010PropOp44
 70
     1
102
RTVSPost2010Prop45
280
     0
102
RTVSPost2010PropOp45
 70
     1
102
RTVSPost2010Prop46
 90
       50
102
RTVSPost2010PropOp46
 70
     1
102
RTVSPost2010Prop47
 90
       50
102
RTVSPost2010PropOp47
 70
     1
102
RTVSPost2010Prop48
 90
       50
102
RTVSPost2010PropOp48
 70
     1
102
RTVSPost2010Prop49
280
     0
102
RTVSPost2010PropOp49
 70
     1
102
RTVSPost2010Prop50
 90
       50
102
RTVSPost2010PropOp50
 70
     1
102
RTVSPost2010Prop51ColorIndex
 90
      256
102
RTVSPost2010Prop51ColorRGB
 90
-16777216
102
RTVSPost2010PropOp51
 70
     0
102
RTVSPost2010Prop52
140
1.0
102
RTVSPost2010PropOp52
 70
     0
102
RTVSPost2010Prop53
 90
        2
102
RTVSPost2010PropOp53
 70
     1
102
RTVSPost2010Prop54
  1
strokes_ogs.tif
102
RTVSPost2010PropOp54
 70
     1
102
RTVSPost2010Prop55
280
     0
102
RTVSPost2010PropOp55
 70
     1
102
RTVSPost2010Prop56
140
1.0
102
RTVSPost2010PropOp56
 70
     1
102
RTVSPost2010Prop57
140
1.0
102
RTVSPost2010PropOp57
 70
     1
  0
XRECORD
  5
1BC
102
{ACAD_REACTORS
330
1BB
102
}
330
1BB
100
AcDbXrecord
280
     1
102
RTVSPropertyOp0
 70
     1
102
RTVSPropertyOp1
 70
     1
102
RTVSPropertyOp2
 70
     1
102
RTVSPropertyOp3
 70
     1
102
RTVSPropertyOp4
 70
     1
102
RTVSPropertyOp5
 70
     1
102
RTVSPropertyOp6
 70
     1
102
RTVSPropertyOp7
 70
     1
102
RTVSPropertyOp8
 70
     1
102
RTVSPropertyOp9
 70
     1
102
RTVSPropertyOp10
 70
     1
102
RTVSPropertyOp11
 70
     1
102
RTVSPropertyOp12
 70
     1
102
RTVSPropertyOp13
 70
     1
102
RTVSPropertyOp14
 70
     1
102
RTVSPropertyOp15
 70
     1
102
RTVSPropertyOp16
 70
     1
102
RTVSPropertyOp17
 70
     1
102
RTVSPropertyOp18
 70
     1
102
RTVSPropertyOp19
 70
     1
102
RTVSPropertyOp20
 70
     1
102
RTVSPropertyOp21
 70
     1
102
RTVSPropertyOp22
 70
     1
102
RTVSPropertyOp23
 70
     1
102
RTVSPropertyOp24
 70
     1
102
RTVSPropertyOp25
 70
     1
102
RTVSPropertyOp26
 70
     1
102
RTVSPropertyOp27
 70
     1
102
RTVSPropertyOp28
 70
     1
102
RTVSPropertyOp29
 70
     1
102
RTVSPropertyOp30
 70
     1
102
RTVSPropertyOp31
 70
     1
102
RTVSPropertyOp32
 70
     1
102
RTVSPropertyOp33
 70
     1
102
RTVSPropertyOp34
 70
     1
102
RTVSPropertyOp35
 70
     1
102
RTVSPropertyOp36
 70
     1
102
RTVSPropertyOp37
 70
     1
102
RTVSPropertyOp38
 70
     1
102
RTVSPropertyOp39
 70
     1
102
RTVSPropertyOp40
 70
     1
102
RTVSPropertyOp41
 70
     1
102
RTVSPropertyOp42
 70
     1
102
RTVSPropertyOp43
 70
     1
102
RTVSPropertyOp44
 70
     1
102
RTVSPropertyOp45
 70
     1
102
RTVSPropertyOp46
 70
     1
102
RTVSPropertyOp47
 70
     1
102
RTVSPropertyOp48
 70
     1
102
RTVSPropertyOp49
 70
     1
102
RTVSPropertyOp50
 70
     1
102
RTVSPropertyOp51
 70
     0
102
RTVSPropertyOp52
 70
     0
102
RTVSPropertyOp53
 70
     1
102
RTVSPropertyOp54
 70
     1
102
RTVSPropertyOp55
 70
     1
102
RTVSPropertyOp56
 70
     1
102
RTVSPropertyOp57
 70
     1
102
RTVSPost2010Prop28
280
     0
102
RTVSPost2010PropOp28
 70
     1
102
RTVSPost2010Prop29
280
     1
102
RTVSPost2010PropOp29
 70
     1
102
RTVSPost2010Prop30
280
     1
102
RTVSPost2010PropOp30
 70
     1
102
RTVSPost2010Prop31
280
     0
102
RTVSPost2010PropOp31
 70
     1
102
RTVSPost2010Prop32
280
     0
102
RTVSPost2010PropOp32
 70
     1
102
RTVSPost2010Prop33
280
     0
102
RTVSPost2010PropOp33
 70
     1
102
RTVSPost2010Prop34
280
     0
102
RTVSPost2010PropOp34
 70
     1
102
RTVSPost2010Prop35
280
     0
102
RTVSPost2010PropOp35
 70
     1
102
RTVSPost2010Prop36
280
     0
102
RTVSPost2010PropOp36
 70
     1
102
RTVSPost2010Prop37
 90
       50
102
RTVSPost2010PropOp37
 70
     1
102
RTVSPost2010Prop38
140
0.0
102
RTVSPost2010PropOp38
 70
     1
102
RTVSPost2010Prop39
140
1.0
102
RTVSPost2010PropOp39
 70
     1
102
RTVSPost2010Prop40
 90
        0
102
RTVSPost2010PropOp40
 70
     1
102
RTVSPost2010Prop41ColorIndex
 90
       18
102
RTVSPost2010Prop41ColorRGB
 90
        0
102
RTVSPost2010PropOp41
 70
     1
102
RTVSPost2010Prop42
 90
       50
102
RTVSPost2010PropOp42
 70
     1
102
RTVSPost2010Prop43
 90
        3
102
RTVSPost2010PropOp43
 70
     1
102
RTVSPost2010Prop44ColorIndex
 90
        5
102
RTVSPost2010Prop44ColorRGB
 90
      255
102
RTVSPost2010PropOp44
 70
     1
102
RTVSPost2010Prop45
280
     0
102
RTVSPost2010PropOp45
 70
     1
102
RTVSPost2010Prop46
 90
       50
102
RTVSPost2010PropOp46
 70
     1
102
RTVSPost2010Prop47
 90
       50
102
RTVSPost2010PropOp47
 70
     1
102
RTVSPost2010Prop48
 90
       50
102
RTVSPost2010PropOp48
 70
     1
102
RTVSPost2010Prop49
280
     0
102
RTVSPost2010PropOp49
 70
     1
102
RTVSPost2010Prop50
 90
       50
102
RTVSPost2010PropOp50
 70
     1
102
RTVSPost2010Prop51ColorIndex
 90
      256
102
RTVSPost2010Prop51ColorRGB
 90
-16777216
102
RTVSPost2010PropOp51
 70
     0
102
RTVSPost2010Prop52
140
1.0
102
RTVSPost2010PropOp52
 70
     0
102
RTVSPost2010Prop53
 90
        2
102
RTVSPost2010PropOp53
 70
     1
102
RTVSPost2010Prop54
  1
strokes_ogs.tif
102
RTVSPost2010PropOp54
 70
     1
102
RTVSPost2010Prop55
280
     0
102
RTVSPost2010PropOp55
 70
     1
102
RTVSPost2010Prop56
140
1.0
102
RTVSPost2010PropOp56
 70
     1
102
RTVSPost2010Prop57
140
1.0
102
RTVSPost2010PropOp57
 70
     1
  0
XRECORD
  5
1D0
102
{ACAD_REACTORS
330
1CF
102
}
330
1CF
100
AcDbXrecord
280
     1
102
RTVSPropertyOp0
 70
     0
102
RTVSPropertyOp1
 70
     0
102
RTVSPropertyOp2
 70
     0
102
RTVSPropertyOp3
 70
     0
102
RTVSPropertyOp4
 70
     0
102
RTVSPropertyOp5
 70
     0
102
RTVSPropertyOp6
 70
     0
102
RTVSPropertyOp7
 70
     0
102
RTVSPropertyOp8
 70
     0
102
RTVSPropertyOp9
 70
     0
102
RTVSPropertyOp10
 70
     0
102
RTVSPropertyOp11
 70
     0
102
RTVSPropertyOp12
 70
     0
102
RTVSPropertyOp13
 70
     0
102
RTVSPropertyOp14
 70
     2
102
RTVSPropertyOp15
 70
     0
102
RTVSPropertyOp16
 70
     0
102
RTVSPropertyOp17
 70
     0
102
RTVSPropertyOp18
 70
     0
102
RTVSPropertyOp19
 70
     0
102
RTVSPropertyOp20
 70
     0
102
RTVSPropertyOp21
 70
     0
102
RTVSPropertyOp22
 70
     0
102
RTVSPropertyOp23
 70
     0
102
RTVSPropertyOp24
 70
     0
102
RTVSPropertyOp25
 70
     0
102
RTVSPropertyOp26
 70
     0
102
RTVSPropertyOp27
 70
     0
102
RTVSPropertyOp28
 70
     0
102
RTVSPropertyOp29
 70
     0
102
RTVSPropertyOp30
 70
     0
102
RTVSPropertyOp31
 70
     0
102
RTVSPropertyOp32
 70
     0
102
RTVSPropertyOp33
 70
     0
102
RTVSPropertyOp34
 70
     0
102
RTVSPropertyOp35
 70
     0
102
RTVSPropertyOp36
 70
     0
102
RTVSPropertyOp37
 70
     0
102
RTVSPropertyOp38
 70
     0
102
RTVSPropertyOp39
 70
     0
102
RTVSPropertyOp40
 70
     0
102
RTVSPropertyOp41
 70
     0
102
RTVSPropertyOp42
 70
     0
102
RTVSPropertyOp43
 70
     0
102
RTVSPropertyOp44
 70
     0
102
RTVSPropertyOp45
 70
     0
102
RTVSPropertyOp46
 70
     0
102
RTVSPropertyOp47
 70
     0
102
RTVSPropertyOp48
 70
     0
102
RTVSPropertyOp49
 70
     0
102
RTVSPropertyOp50
 70
     0
102
RTVSPropertyOp51
 70
     0
102
RTVSPropertyOp52
 70
     0
102
RTVSPropertyOp53
 70
     0
102
RTVSPropertyOp54
 70
     0
102
RTVSPropertyOp55
 70
     0
102
RTVSPropertyOp56
 70
     0
102
RTVSPropertyOp57
 70
     0
102
RTVSPost2010Prop28
280
     0
102
RTVSPost2010PropOp28
 70
     0
102
RTVSPost2010Prop29
280
     1
102
RTVSPost2010PropOp29
 70
     0
102
RTVSPost2010Prop30
280
     1
102
RTVSPost2010PropOp30
 70
     0
102
RTVSPost2010Prop31
280
     0
102
RTVSPost2010PropOp31
 70
     0
102
RTVSPost2010Prop32
280
     0
102
RTVSPost2010PropOp32
 70
     0
102
RTVSPost2010Prop33
280
     0
102
RTVSPost2010PropOp33
 70
     0
102
RTVSPost2010Prop34
280
     0
102
RTVSPost2010PropOp34
 70
     0
102
RTVSPost2010Prop35
280
     0
102
RTVSPost2010PropOp35
 70
     0
102
RTVSPost2010Prop36
280
     0
102
RTVSPost2010PropOp36
 70
     0
102
RTVSPost2010Prop37
 90
       50
102
RTVSPost2010PropOp37
 70
     0
102
RTVSPost2010Prop38
140
0.0
102
RTVSPost2010PropOp38
 70
     0
102
RTVSPost2010Prop39
140
1.0
102
RTVSPost2010PropOp39
 70
     0
102
RTVSPost2010Prop40
 90
        0
102
RTVSPost2010PropOp40
 70
     0
102
RTVSPost2010Prop41ColorIndex
 90
       18
102
RTVSPost2010Prop41ColorRGB
 90
        0
102
RTVSPost2010PropOp41
 70
     0
102
RTVSPost2010Prop42
 90
       50
102
RTVSPost2010PropOp42
 70
     0
102
RTVSPost2010Prop43
 90
        3
102
RTVSPost2010PropOp43
 70
     0
102
RTVSPost2010Prop44ColorIndex
 90
        5
102
RTVSPost2010Prop44ColorRGB
 90
      255
102
RTVSPost2010PropOp44
 70
     0
102
RTVSPost2010Prop45
280
     0
102
RTVSPost2010PropOp45
 70
     0
102
RTVSPost2010Prop46
 90
       50
102
RTVSPost2010PropOp46
 70
     0
102
RTVSPost2010Prop47
 90
       50
102
RTVSPost2010PropOp47
 70
     0
102
RTVSPost2010Prop48
 90
       50
102
RTVSPost2010PropOp48
 70
     0
102
RTVSPost2010Prop49
280
     0
102
RTVSPost2010PropOp49
 70
     0
102
RTVSPost2010Prop50
 90
       50
102
RTVSPost2010PropOp50
 70
     0
102
RTVSPost2010Prop51ColorIndex
 90
      256
102
RTVSPost2010Prop51ColorRGB
 90
-16777216
102
RTVSPost2010PropOp51
 70
     0
102
RTVSPost2010Prop52
140
1.0
102
RTVSPost2010PropOp52
 70
     0
102
RTVSPost2010Prop53
 90
        2
102
RTVSPost2010PropOp53
 70
     0
102
RTVSPost2010Prop54
  1
strokes_ogs.tif
102
RTVSPost2010PropOp54
 70
     0
102
RTVSPost2010Prop55
280
     0
102
RTVSPost2010PropOp55
 70
     0
102
RTVSPost2010Prop56
140
1.0
102
RTVSPost2010PropOp56
 70
     0
102
RTVSPost2010Prop57
140
1.0
102
RTVSPost2010PropOp57
 70
     0
  0
XRECORD
  5
1CA
102
{ACAD_REACTORS
330
1C9
102
}
330
1C9
100
AcDbXrecord
280
     1
102
RTVSPropertyOp0
 70
     1
102
RTVSPropertyOp1
 70
     1
102
RTVSPropertyOp2
 70
     1
102
RTVSPropertyOp3
 70
     1
102
RTVSPropertyOp4
 70
     1
102
RTVSPropertyOp5
 70
     1
102
RTVSPropertyOp6
 70
     1
102
RTVSPropertyOp7
 70
     1
102
RTVSPropertyOp8
 70
     1
102
RTVSPropertyOp9
 70
     1
102
RTVSPropertyOp10
 70
     1
102
RTVSPropertyOp11
 70
     1
102
RTVSPropertyOp12
 70
     1
102
RTVSPropertyOp13
 70
     1
102
RTVSPropertyOp14
 70
     1
102
RTVSPropertyOp15
 70
     1
102
RTVSPropertyOp16
 70
     1
102
RTVSPropertyOp17
 70
     1
102
RTVSPropertyOp18
 70
     1
102
RTVSPropertyOp19
 70
     1
102
RTVSPropertyOp20
 70
     1
102
RTVSPropertyOp21
 70
     1
102
RTVSPropertyOp22
 70
     1
102
RTVSPropertyOp23
 70
     1
102
RTVSPropertyOp24
 70
     1
102
RTVSPropertyOp25
 70
     1
102
RTVSPropertyOp26
 70
     1
102
RTVSPropertyOp27
 70
     1
102
RTVSPropertyOp28
 70
     1
102
RTVSPropertyOp29
 70
     1
102
RTVSPropertyOp30
 70
     1
102
RTVSPropertyOp31
 70
     1
102
RTVSPropertyOp32
 70
     1
102
RTVSPropertyOp33
 70
     1
102
RTVSPropertyOp34
 70
     1
102
RTVSPropertyOp35
 70
     1
102
RTVSPropertyOp36
 70
     1
102
RTVSPropertyOp37
 70
     1
102
RTVSPropertyOp38
 70
     1
102
RTVSPropertyOp39
 70
     1
102
RTVSPropertyOp40
 70
     1
102
RTVSPropertyOp41
 70
     1
102
RTVSPropertyOp42
 70
     1
102
RTVSPropertyOp43
 70
     1
102
RTVSPropertyOp44
 70
     1
102
RTVSPropertyOp45
 70
     1
102
RTVSPropertyOp46
 70
     1
102
RTVSPropertyOp47
 70
     1
102
RTVSPropertyOp48
 70
     1
102
RTVSPropertyOp49
 70
     1
102
RTVSPropertyOp50
 70
     1
102
RTVSPropertyOp51
 70
     0
102
RTVSPropertyOp52
 70
     0
102
RTVSPropertyOp53
 70
     1
102
RTVSPropertyOp54
 70
     1
102
RTVSPropertyOp55
 70
     1
102
RTVSPropertyOp56
 70
     1
102
RTVSPropertyOp57
 70
     1
102
RTVSPost2010Prop28
280
     0
102
RTVSPost2010PropOp28
 70
     1
102
RTVSPost2010Prop29
280
     1
102
RTVSPost2010PropOp29
 70
     1
102
RTVSPost2010Prop30
280
     1
102
RTVSPost2010PropOp30
 70
     1
102
RTVSPost2010Prop31
280
     0
102
RTVSPost2010PropOp31
 70
     1
102
RTVSPost2010Prop32
280
     0
102
RTVSPost2010PropOp32
 70
     1
102
RTVSPost2010Prop33
280
     0
102
RTVSPost2010PropOp33
 70
     1
102
RTVSPost2010Prop34
280
     0
102
RTVSPost2010PropOp34
 70
     1
102
RTVSPost2010Prop35
280
     0
102
RTVSPost2010PropOp35
 70
     1
102
RTVSPost2010Prop36
280
     0
102
RTVSPost2010PropOp36
 70
     1
102
RTVSPost2010Prop37
 90
       50
102
RTVSPost2010PropOp37
 70
     1
102
RTVSPost2010Prop38
140
0.0
102
RTVSPost2010PropOp38
 70
     1
102
RTVSPost2010Prop39
140
1.0
102
RTVSPost2010PropOp39
 70
     1
102
RTVSPost2010Prop40
 90
        0
102
RTVSPost2010PropOp40
 70
     1
102
RTVSPost2010Prop41ColorIndex
 90
       18
102
RTVSPost2010Prop41ColorRGB
 90
        0
102
RTVSPost2010PropOp41
 70
     1
102
RTVSPost2010Prop42
 90
       50
102
RTVSPost2010PropOp42
 70
     1
102
RTVSPost2010Prop43
 90
        3
102
RTVSPost2010PropOp43
 70
     1
102
RTVSPost2010Prop44ColorIndex
 90
        5
102
RTVSPost2010Prop44ColorRGB
 90
      255
102
RTVSPost2010PropOp44
 70
     1
102
RTVSPost2010Prop45
280
     0
102
RTVSPost2010PropOp45
 70
     1
102
RTVSPost2010Prop46
 90
       50
102
RTVSPost2010PropOp46
 70
     1
102
RTVSPost2010Prop47
 90
       50
102
RTVSPost2010PropOp47
 70
     1
102
RTVSPost2010Prop48
 90
       50
102
RTVSPost2010PropOp48
 70
     1
102
RTVSPost2010Prop49
280
     0
102
RTVSPost2010PropOp49
 70
     1
102
RTVSPost2010Prop50
 90
       50
102
RTVSPost2010PropOp50
 70
     1
102
RTVSPost2010Prop51ColorIndex
 90
      256
102
RTVSPost2010Prop51ColorRGB
 90
-16777216
102
RTVSPost2010PropOp51
 70
     0
102
RTVSPost2010Prop52
140
1.0
102
RTVSPost2010PropOp52
 70
     0
102
RTVSPost2010Prop53
 90
        2
102
RTVSPost2010PropOp53
 70
     1
102
RTVSPost2010Prop54
  1
strokes_ogs.tif
102
RTVSPost2010PropOp54
 70
     1
102
RTVSPost2010Prop55
280
     0
102
RTVSPost2010PropOp55
 70
     1
102
RTVSPost2010Prop56
140
1.0
102
RTVSPost2010PropOp56
 70
     1
102
RTVSPost2010Prop57
140
1.0
102
RTVSPost2010PropOp57
 70
     1
  0
XRECORD
  5
1D2
102
{ACAD_REACTORS
330
1D1
102
}
330
1D1
100
AcDbXrecord
280
     1
102
RTVSPropertyOp0
 70
     0
102
RTVSPropertyOp1
 70
     0
102
RTVSPropertyOp2
 70
     0
102
RTVSPropertyOp3
 70
     0
102
RTVSPropertyOp4
 70
     0
102
RTVSPropertyOp5
 70
     0
102
RTVSPropertyOp6
 70
     0
102
RTVSPropertyOp7
 70
     0
102
RTVSPropertyOp8
 70
     0
102
RTVSPropertyOp9
 70
     0
102
RTVSPropertyOp10
 70
     0
102
RTVSPropertyOp11
 70
     0
102
RTVSPropertyOp12
 70
     0
102
RTVSPropertyOp13
 70
     0
102
RTVSPropertyOp14
 70
     2
102
RTVSPropertyOp15
 70
     0
102
RTVSPropertyOp16
 70
     0
102
RTVSPropertyOp17
 70
     0
102
RTVSPropertyOp18
 70
     0
102
RTVSPropertyOp19
 70
     0
102
RTVSPropertyOp20
 70
     0
102
RTVSPropertyOp21
 70
     0
102
RTVSPropertyOp22
 70
     0
102
RTVSPropertyOp23
 70
     0
102
RTVSPropertyOp24
 70
     0
102
RTVSPropertyOp25
 70
     0
102
RTVSPropertyOp26
 70
     0
102
RTVSPropertyOp27
 70
     0
102
RTVSPropertyOp28
 70
     0
102
RTVSPropertyOp29
 70
     0
102
RTVSPropertyOp30
 70
     0
102
RTVSPropertyOp31
 70
     0
102
RTVSPropertyOp32
 70
     0
102
RTVSPropertyOp33
 70
     0
102
RTVSPropertyOp34
 70
     0
102
RTVSPropertyOp35
 70
     0
102
RTVSPropertyOp36
 70
     0
102
RTVSPropertyOp37
 70
     0
102
RTVSPropertyOp38
 70
     0
102
RTVSPropertyOp39
 70
     0
102
RTVSPropertyOp40
 70
     0
102
RTVSPropertyOp41
 70
     0
102
RTVSPropertyOp42
 70
     0
102
RTVSPropertyOp43
 70
     0
102
RTVSPropertyOp44
 70
     0
102
RTVSPropertyOp45
 70
     0
102
RTVSPropertyOp46
 70
     0
102
RTVSPropertyOp47
 70
     0
102
RTVSPropertyOp48
 70
     0
102
RTVSPropertyOp49
 70
     0
102
RTVSPropertyOp50
 70
     0
102
RTVSPropertyOp51
 70
     0
102
RTVSPropertyOp52
 70
     0
102
RTVSPropertyOp53
 70
     0
102
RTVSPropertyOp54
 70
     0
102
RTVSPropertyOp55
 70
     0
102
RTVSPropertyOp56
 70
     0
102
RTVSPropertyOp57
 70
     0
102
RTVSPost2010Prop28
280
     0
102
RTVSPost2010PropOp28
 70
     0
102
RTVSPost2010Prop29
280
     1
102
RTVSPost2010PropOp29
 70
     0
102
RTVSPost2010Prop30
280
     1
102
RTVSPost2010PropOp30
 70
     0
102
RTVSPost2010Prop31
280
     0
102
RTVSPost2010PropOp31
 70
     0
102
RTVSPost2010Prop32
280
     0
102
RTVSPost2010PropOp32
 70
     0
102
RTVSPost2010Prop33
280
     0
102
RTVSPost2010PropOp33
 70
     0
102
RTVSPost2010Prop34
280
     0
102
RTVSPost2010PropOp34
 70
     0
102
RTVSPost2010Prop35
280
     0
102
RTVSPost2010PropOp35
 70
     0
102
RTVSPost2010Prop36
280
     0
102
RTVSPost2010PropOp36
 70
     0
102
RTVSPost2010Prop37
 90
       50
102
RTVSPost2010PropOp37
 70
     0
102
RTVSPost2010Prop38
140
0.0
102
RTVSPost2010PropOp38
 70
     0
102
RTVSPost2010Prop39
140
1.0
102
RTVSPost2010PropOp39
 70
     0
102
RTVSPost2010Prop40
 90
        0
102
RTVSPost2010PropOp40
 70
     0
102
RTVSPost2010Prop41ColorIndex
 90
       18
102
RTVSPost2010Prop41ColorRGB
 90
        0
102
RTVSPost2010PropOp41
 70
     0
102
RTVSPost2010Prop42
 90
       50
102
RTVSPost2010PropOp42
 70
     0
102
RTVSPost2010Prop43
 90
        3
102
RTVSPost2010PropOp43
 70
     0
102
RTVSPost2010Prop44ColorIndex
 90
        5
102
RTVSPost2010Prop44ColorRGB
 90
      255
102
RTVSPost2010PropOp44
 70
     0
102
RTVSPost2010Prop45
280
     0
102
RTVSPost2010PropOp45
 70
     0
102
RTVSPost2010Prop46
 90
       50
102
RTVSPost2010PropOp46
 70
     0
102
RTVSPost2010Prop47
 90
       50
102
RTVSPost2010PropOp47
 70
     0
102
RTVSPost2010Prop48
 90
       50
102
RTVSPost2010PropOp48
 70
     0
102
RTVSPost2010Prop49
280
     0
102
RTVSPost2010PropOp49
 70
     0
102
RTVSPost2010Prop50
 90
       50
102
RTVSPost2010PropOp50
 70
     0
102
RTVSPost2010Prop51ColorIndex
 90
      256
102
RTVSPost2010Prop51ColorRGB
 90
-16777216
102
RTVSPost2010PropOp51
 70
     0
102
RTVSPost2010Prop52
140
1.0
102
RTVSPost2010PropOp52
 70
     0
102
RTVSPost2010Prop53
 90
        2
102
RTVSPost2010PropOp53
 70
     0
102
RTVSPost2010Prop54
  1
strokes_ogs.tif
102
RTVSPost2010PropOp54
 70
     0
102
RTVSPost2010Prop55
280
     0
102
RTVSPost2010PropOp55
 70
     0
102
RTVSPost2010Prop56
140
1.0
102
RTVSPost2010PropOp56
 70
     0
102
RTVSPost2010Prop57
140
1.0
102
RTVSPost2010PropOp57
 70
     0
  0
XRECORD
  5
1C0
102
{ACAD_REACTORS
330
1BF
102
}
330
1BF
100
AcDbXrecord
280
     1
102
RTVSPropertyOp0
 70
     1
102
RTVSPropertyOp1
 70
     1
102
RTVSPropertyOp2
 70
     1
102
RTVSPropertyOp3
 70
     1
102
RTVSPropertyOp4
 70
     1
102
RTVSPropertyOp5
 70
     1
102
RTVSPropertyOp6
 70
     1
102
RTVSPropertyOp7
 70
     1
102
RTVSPropertyOp8
 70
     1
102
RTVSPropertyOp9
 70
     1
102
RTVSPropertyOp10
 70
     1
102
RTVSPropertyOp11
 70
     1
102
RTVSPropertyOp12
 70
     1
102
RTVSPropertyOp13
 70
     1
102
RTVSPropertyOp14
 70
     1
102
RTVSPropertyOp15
 70
     1
102
RTVSPropertyOp16
 70
     1
102
RTVSPropertyOp17
 70
     1
102
RTVSPropertyOp18
 70
     1
102
RTVSPropertyOp19
 70
     1
102
RTVSPropertyOp20
 70
     1
102
RTVSPropertyOp21
 70
     1
102
RTVSPropertyOp22
 70
     1
102
RTVSPropertyOp23
 70
     1
102
RTVSPropertyOp24
 70
     1
102
RTVSPropertyOp25
 70
     1
102
RTVSPropertyOp26
 70
     1
102
RTVSPropertyOp27
 70
     1
102
RTVSPropertyOp28
 70
     1
102
RTVSPropertyOp29
 70
     1
102
RTVSPropertyOp30
 70
     1
102
RTVSPropertyOp31
 70
     1
102
RTVSPropertyOp32
 70
     1
102
RTVSPropertyOp33
 70
     1
102
RTVSPropertyOp34
 70
     1
102
RTVSPropertyOp35
 70
     1
102
RTVSPropertyOp36
 70
     1
102
RTVSPropertyOp37
 70
     1
102
RTVSPropertyOp38
 70
     1
102
RTVSPropertyOp39
 70
     1
102
RTVSPropertyOp40
 70
     1
102
RTVSPropertyOp41
 70
     1
102
RTVSPropertyOp42
 70
     1
102
RTVSPropertyOp43
 70
     1
102
RTVSPropertyOp44
 70
     1
102
RTVSPropertyOp45
 70
     1
102
RTVSPropertyOp46
 70
     1
102
RTVSPropertyOp47
 70
     1
102
RTVSPropertyOp48
 70
     1
102
RTVSPropertyOp49
 70
     1
102
RTVSPropertyOp50
 70
     1
102
RTVSPropertyOp51
 70
     0
102
RTVSPropertyOp52
 70
     0
102
RTVSPropertyOp53
 70
     1
102
RTVSPropertyOp54
 70
     1
102
RTVSPropertyOp55
 70
     1
102
RTVSPropertyOp56
 70
     1
102
RTVSPropertyOp57
 70
     1
102
RTVSPost2010Prop28
280
     0
102
RTVSPost2010PropOp28
 70
     1
102
RTVSPost2010Prop29
280
     1
102
RTVSPost2010PropOp29
 70
     1
102
RTVSPost2010Prop30
280
     1
102
RTVSPost2010PropOp30
 70
     1
102
RTVSPost2010Prop31
280
     0
102
RTVSPost2010PropOp31
 70
     1
102
RTVSPost2010Prop32
280
     0
102
RTVSPost2010PropOp32
 70
     1
102
RTVSPost2010Prop33
280
     0
102
RTVSPost2010PropOp33
 70
     1
102
RTVSPost2010Prop34
280
     0
102
RTVSPost2010PropOp34
 70
     1
102
RTVSPost2010Prop35
280
     0
102
RTVSPost2010PropOp35
 70
     1
102
RTVSPost2010Prop36
280
     0
102
RTVSPost2010PropOp36
 70
     1
102
RTVSPost2010Prop37
 90
       50
102
RTVSPost2010PropOp37
 70
     1
102
RTVSPost2010Prop38
140
0.0
102
RTVSPost2010PropOp38
 70
     1
102
RTVSPost2010Prop39
140
1.0
102
RTVSPost2010PropOp39
 70
     1
102
RTVSPost2010Prop40
 90
        0
102
RTVSPost2010PropOp40
 70
     1
102
RTVSPost2010Prop41ColorIndex
 90
       18
102
RTVSPost2010Prop41ColorRGB
 90
        0
102
RTVSPost2010PropOp41
 70
     1
102
RTVSPost2010Prop42
 90
       50
102
RTVSPost2010PropOp42
 70
     1
102
RTVSPost2010Prop43
 90
        3
102
RTVSPost2010PropOp43
 70
     1
102
RTVSPost2010Prop44ColorIndex
 90
        5
102
RTVSPost2010Prop44ColorRGB
 90
      255
102
RTVSPost2010PropOp44
 70
     1
102
RTVSPost2010Prop45
280
     0
102
RTVSPost2010PropOp45
 70
     1
102
RTVSPost2010Prop46
 90
       50
102
RTVSPost2010PropOp46
 70
     1
102
RTVSPost2010Prop47
 90
       50
102
RTVSPost2010PropOp47
 70
     1
102
RTVSPost2010Prop48
 90
       50
102
RTVSPost2010PropOp48
 70
     1
102
RTVSPost2010Prop49
280
     0
102
RTVSPost2010PropOp49
 70
     1
102
RTVSPost2010Prop50
 90
       50
102
RTVSPost2010PropOp50
 70
     1
102
RTVSPost2010Prop51ColorIndex
 90
      256
102
RTVSPost2010Prop51ColorRGB
 90
-16777216
102
RTVSPost2010PropOp51
 70
     0
102
RTVSPost2010Prop52
140
1.0
102
RTVSPost2010PropOp52
 70
     0
102
RTVSPost2010Prop53
 90
        2
102
RTVSPost2010PropOp53
 70
     1
102
RTVSPost2010Prop54
  1
strokes_ogs.tif
102
RTVSPost2010PropOp54
 70
     1
102
RTVSPost2010Prop55
280
     0
102
RTVSPost2010PropOp55
 70
     1
102
RTVSPost2010Prop56
140
1.0
102
RTVSPost2010PropOp56
 70
     1
102
RTVSPost2010Prop57
140
1.0
102
RTVSPost2010PropOp57
 70
     1
  0
XRECORD
  5
1DE
102
{ACAD_REACTORS
330
1DD
102
}
330
1DD
100
AcDbXrecord
280
     1
102
RTVSPropertyOp0
 70
     1
102
RTVSPropertyOp1
 70
     1
102
RTVSPropertyOp2
 70
     1
102
RTVSPropertyOp3
 70
     1
102
RTVSPropertyOp4
 70
     1
102
RTVSPropertyOp5
 70
     1
102
RTVSPropertyOp6
 70
     1
102
RTVSPropertyOp7
 70
     1
102
RTVSPropertyOp8
 70
     1
102
RTVSPropertyOp9
 70
     1
102
RTVSPropertyOp10
 70
     1
102
RTVSPropertyOp11
 70
     1
102
RTVSPropertyOp12
 70
     1
102
RTVSPropertyOp13
 70
     1
102
RTVSPropertyOp14
 70
     1
102
RTVSPropertyOp15
 70
     1
102
RTVSPropertyOp16
 70
     1
102
RTVSPropertyOp17
 70
     1
102
RTVSPropertyOp18
 70
     1
102
RTVSPropertyOp19
 70
     1
102
RTVSPropertyOp20
 70
     1
102
RTVSPropertyOp21
 70
     1
102
RTVSPropertyOp22
 70
     1
102
RTVSPropertyOp23
 70
     1
102
RTVSPropertyOp24
 70
     1
102
RTVSPropertyOp25
 70
     1
102
RTVSPropertyOp26
 70
     1
102
RTVSPropertyOp27
 70
     1
102
RTVSPropertyOp28
 70
     1
102
RTVSPropertyOp29
 70
     1
102
RTVSPropertyOp30
 70
     1
102
RTVSPropertyOp31
 70
     1
102
RTVSPropertyOp32
 70
     1
102
RTVSPropertyOp33
 70
     1
102
RTVSPropertyOp34
 70
     1
102
RTVSPropertyOp35
 70
     1
102
RTVSPropertyOp36
 70
     1
102
RTVSPropertyOp37
 70
     1
102
RTVSPropertyOp38
 70
     1
102
RTVSPropertyOp39
 70
     1
102
RTVSPropertyOp40
 70
     1
102
RTVSPropertyOp41
 70
     1
102
RTVSPropertyOp42
 70
     1
102
RTVSPropertyOp43
 70
     1
102
RTVSPropertyOp44
 70
     1
102
RTVSPropertyOp45
 70
     1
102
RTVSPropertyOp46
 70
     1
102
RTVSPropertyOp47
 70
     1
102
RTVSPropertyOp48
 70
     1
102
RTVSPropertyOp49
 70
     1
102
RTVSPropertyOp50
 70
     1
102
RTVSPropertyOp51
 70
     0
102
RTVSPropertyOp52
 70
     0
102
RTVSPropertyOp53
 70
     1
102
RTVSPropertyOp54
 70
     1
102
RTVSPropertyOp55
 70
     1
102
RTVSPropertyOp56
 70
     1
102
RTVSPropertyOp57
 70
     1
102
RTVSPost2010Prop28
280
     0
102
RTVSPost2010PropOp28
 70
     1
102
RTVSPost2010Prop29
280
     1
102
RTVSPost2010PropOp29
 70
     1
102
RTVSPost2010Prop30
280
     1
102
RTVSPost2010PropOp30
 70
     1
102
RTVSPost2010Prop31
280
     0
102
RTVSPost2010PropOp31
 70
     1
102
RTVSPost2010Prop32
280
     0
102
RTVSPost2010PropOp32
 70
     1
102
RTVSPost2010Prop33
280
     0
102
RTVSPost2010PropOp33
 70
     1
102
RTVSPost2010Prop34
280
     0
102
RTVSPost2010PropOp34
 70
     1
102
RTVSPost2010Prop35
280
     0
102
RTVSPost2010PropOp35
 70
     1
102
RTVSPost2010Prop36
280
     0
102
RTVSPost2010PropOp36
 70
     1
102
RTVSPost2010Prop37
 90
       50
102
RTVSPost2010PropOp37
 70
     1
102
RTVSPost2010Prop38
140
0.0
102
RTVSPost2010PropOp38
 70
     1
102
RTVSPost2010Prop39
140
1.0
102
RTVSPost2010PropOp39
 70
     1
102
RTVSPost2010Prop40
 90
        0
102
RTVSPost2010PropOp40
 70
     1
102
RTVSPost2010Prop41ColorIndex
 90
       18
102
RTVSPost2010Prop41ColorRGB
 90
        0
102
RTVSPost2010PropOp41
 70
     1
102
RTVSPost2010Prop42
 90
       50
102
RTVSPost2010PropOp42
 70
     1
102
RTVSPost2010Prop43
 90
        3
102
RTVSPost2010PropOp43
 70
     1
102
RTVSPost2010Prop44ColorIndex
 90
        5
102
RTVSPost2010Prop44ColorRGB
 90
      255
102
RTVSPost2010PropOp44
 70
     1
102
RTVSPost2010Prop45
280
     0
102
RTVSPost2010PropOp45
 70
     1
102
RTVSPost2010Prop46
 90
       50
102
RTVSPost2010PropOp46
 70
     1
102
RTVSPost2010Prop47
 90
       50
102
RTVSPost2010PropOp47
 70
     1
102
RTVSPost2010Prop48
 90
       50
102
RTVSPost2010PropOp48
 70
     1
102
RTVSPost2010Prop49
280
     0
102
RTVSPost2010PropOp49
 70
     1
102
RTVSPost2010Prop50
 90
       50
102
RTVSPost2010PropOp50
 70
     1
102
RTVSPost2010Prop51ColorIndex
 90
      256
102
RTVSPost2010Prop51ColorRGB
 90
-16777216
102
RTVSPost2010PropOp51
 70
     0
102
RTVSPost2010Prop52
140
1.0
102
RTVSPost2010PropOp52
 70
     0
102
RTVSPost2010Prop53
 90
        2
102
RTVSPost2010PropOp53
 70
     1
102
RTVSPost2010Prop54
  1
strokes_ogs.tif
102
RTVSPost2010PropOp54
 70
     1
102
RTVSPost2010Prop55
280
     0
102
RTVSPost2010PropOp55
 70
     1
102
RTVSPost2010Prop56
140
1.0
102
RTVSPost2010PropOp56
 70
     1
102
RTVSPost2010Prop57
140
1.0
102
RTVSPost2010PropOp57
 70
     1
  0
XRECORD
  5
1DC
102
{ACAD_REACTORS
330
1DB
102
}
330
1DB
100
AcDbXrecord
280
     1
102
RTVSPropertyOp0
 70
     1
102
RTVSPropertyOp1
 70
     1
102
RTVSPropertyOp2
 70
     1
102
RTVSPropertyOp3
 70
     1
102
RTVSPropertyOp4
 70
     1
102
RTVSPropertyOp5
 70
     1
102
RTVSPropertyOp6
 70
     1
102
RTVSPropertyOp7
 70
     1
102
RTVSPropertyOp8
 70
     1
102
RTVSPropertyOp9
 70
     1
102
RTVSPropertyOp10
 70
     1
102
RTVSPropertyOp11
 70
     1
102
RTVSPropertyOp12
 70
     1
102
RTVSPropertyOp13
 70
     1
102
RTVSPropertyOp14
 70
     1
102
RTVSPropertyOp15
 70
     1
102
RTVSPropertyOp16
 70
     1
102
RTVSPropertyOp17
 70
     1
102
RTVSPropertyOp18
 70
     1
102
RTVSPropertyOp19
 70
     1
102
RTVSPropertyOp20
 70
     1
102
RTVSPropertyOp21
 70
     1
102
RTVSPropertyOp22
 70
     1
102
RTVSPropertyOp23
 70
     1
102
RTVSPropertyOp24
 70
     1
102
RTVSPropertyOp25
 70
     1
102
RTVSPropertyOp26
 70
     1
102
RTVSPropertyOp27
 70
     1
102
RTVSPropertyOp28
 70
     1
102
RTVSPropertyOp29
 70
     1
102
RTVSPropertyOp30
 70
     1
102
RTVSPropertyOp31
 70
     1
102
RTVSPropertyOp32
 70
     1
102
RTVSPropertyOp33
 70
     1
102
RTVSPropertyOp34
 70
     1
102
RTVSPropertyOp35
 70
     1
102
RTVSPropertyOp36
 70
     1
102
RTVSPropertyOp37
 70
     1
102
RTVSPropertyOp38
 70
     1
102
RTVSPropertyOp39
 70
     1
102
RTVSPropertyOp40
 70
     1
102
RTVSPropertyOp41
 70
     1
102
RTVSPropertyOp42
 70
     1
102
RTVSPropertyOp43
 70
     1
102
RTVSPropertyOp44
 70
     1
102
RTVSPropertyOp45
 70
     1
102
RTVSPropertyOp46
 70
     1
102
RTVSPropertyOp47
 70
     1
102
RTVSPropertyOp48
 70
     1
102
RTVSPropertyOp49
 70
     1
102
RTVSPropertyOp50
 70
     1
102
RTVSPropertyOp51
 70
     0
102
RTVSPropertyOp52
 70
     0
102
RTVSPropertyOp53
 70
     1
102
RTVSPropertyOp54
 70
     1
102
RTVSPropertyOp55
 70
     1
102
RTVSPropertyOp56
 70
     1
102
RTVSPropertyOp57
 70
     1
102
RTVSPost2010Prop28
280
     0
102
RTVSPost2010PropOp28
 70
     1
102
RTVSPost2010Prop29
280
     1
102
RTVSPost2010PropOp29
 70
     1
102
RTVSPost2010Prop30
280
     1
102
RTVSPost2010PropOp30
 70
     1
102
RTVSPost2010Prop31
280
     0
102
RTVSPost2010PropOp31
 70
     1
102
RTVSPost2010Prop32
280
     0
102
RTVSPost2010PropOp32
 70
     1
102
RTVSPost2010Prop33
280
     0
102
RTVSPost2010PropOp33
 70
     1
102
RTVSPost2010Prop34
280
     0
102
RTVSPost2010PropOp34
 70
     1
102
RTVSPost2010Prop35
280
     0
102
RTVSPost2010PropOp35
 70
     1
102
RTVSPost2010Prop36
280
     0
102
RTVSPost2010PropOp36
 70
     1
102
RTVSPost2010Prop37
 90
       50
102
RTVSPost2010PropOp37
 70
     1
102
RTVSPost2010Prop38
140
0.0
102
RTVSPost2010PropOp38
 70
     1
102
RTVSPost2010Prop39
140
1.0
102
RTVSPost2010PropOp39
 70
     1
102
RTVSPost2010Prop40
 90
        0
102
RTVSPost2010PropOp40
 70
     1
102
RTVSPost2010Prop41ColorIndex
 90
       18
102
RTVSPost2010Prop41ColorRGB
 90
        0
102
RTVSPost2010PropOp41
 70
     1
102
RTVSPost2010Prop42
 90
       50
102
RTVSPost2010PropOp42
 70
     1
102
RTVSPost2010Prop43
 90
        3
102
RTVSPost2010PropOp43
 70
     1
102
RTVSPost2010Prop44ColorIndex
 90
        5
102
RTVSPost2010Prop44ColorRGB
 90
      255
102
RTVSPost2010PropOp44
 70
     1
102
RTVSPost2010Prop45
280
     0
102
RTVSPost2010PropOp45
 70
     1
102
RTVSPost2010Prop46
 90
       50
102
RTVSPost2010PropOp46
 70
     1
102
RTVSPost2010Prop47
 90
       50
102
RTVSPost2010PropOp47
 70
     1
102
RTVSPost2010Prop48
 90
       50
102
RTVSPost2010PropOp48
 70
     1
102
RTVSPost2010Prop49
280
     0
102
RTVSPost2010PropOp49
 70
     1
102
RTVSPost2010Prop50
 90
       50
102
RTVSPost2010PropOp50
 70
     1
102
RTVSPost2010Prop51ColorIndex
 90
      256
102
RTVSPost2010Prop51ColorRGB
 90
-16777216
102
RTVSPost2010PropOp51
 70
     0
102
RTVSPost2010Prop52
140
1.0
102
RTVSPost2010PropOp52
 70
     0
102
RTVSPost2010Prop53
 90
        2
102
RTVSPost2010PropOp53
 70
     1
102
RTVSPost2010Prop54
  1
strokes_ogs.tif
102
RTVSPost2010PropOp54
 70
     1
102
RTVSPost2010Prop55
280
     0
102
RTVSPost2010PropOp55
 70
     1
102
RTVSPost2010Prop56
140
1.0
102
RTVSPost2010PropOp56
 70
     1
102
RTVSPost2010Prop57
140
1.0
102
RTVSPost2010PropOp57
 70
     1
  0
XRECORD
  5
1D6
102
{ACAD_REACTORS
330
1D5
102
}
330
1D5
100
AcDbXrecord
280
     1
102
RTVSPropertyOp0
 70
     1
102
RTVSPropertyOp1
 70
     1
102
RTVSPropertyOp2
 70
     1
102
RTVSPropertyOp3
 70
     1
102
RTVSPropertyOp4
 70
     1
102
RTVSPropertyOp5
 70
     1
102
RTVSPropertyOp6
 70
     1
102
RTVSPropertyOp7
 70
     1
102
RTVSPropertyOp8
 70
     1
102
RTVSPropertyOp9
 70
     1
102
RTVSPropertyOp10
 70
     1
102
RTVSPropertyOp11
 70
     1
102
RTVSPropertyOp12
 70
     1
102
RTVSPropertyOp13
 70
     1
102
RTVSPropertyOp14
 70
     1
102
RTVSPropertyOp15
 70
     1
102
RTVSPropertyOp16
 70
     1
102
RTVSPropertyOp17
 70
     1
102
RTVSPropertyOp18
 70
     1
102
RTVSPropertyOp19
 70
     1
102
RTVSPropertyOp20
 70
     1
102
RTVSPropertyOp21
 70
     1
102
RTVSPropertyOp22
 70
     1
102
RTVSPropertyOp23
 70
     1
102
RTVSPropertyOp24
 70
     1
102
RTVSPropertyOp25
 70
     1
102
RTVSPropertyOp26
 70
     1
102
RTVSPropertyOp27
 70
     1
102
RTVSPropertyOp28
 70
     1
102
RTVSPropertyOp29
 70
     1
102
RTVSPropertyOp30
 70
     1
102
RTVSPropertyOp31
 70
     1
102
RTVSPropertyOp32
 70
     1
102
RTVSPropertyOp33
 70
     1
102
RTVSPropertyOp34
 70
     1
102
RTVSPropertyOp35
 70
     1
102
RTVSPropertyOp36
 70
     1
102
RTVSPropertyOp37
 70
     1
102
RTVSPropertyOp38
 70
     1
102
RTVSPropertyOp39
 70
     1
102
RTVSPropertyOp40
 70
     1
102
RTVSPropertyOp41
 70
     1
102
RTVSPropertyOp42
 70
     1
102
RTVSPropertyOp43
 70
     1
102
RTVSPropertyOp44
 70
     1
102
RTVSPropertyOp45
 70
     1
102
RTVSPropertyOp46
 70
     1
102
RTVSPropertyOp47
 70
     1
102
RTVSPropertyOp48
 70
     1
102
RTVSPropertyOp49
 70
     1
102
RTVSPropertyOp50
 70
     1
102
RTVSPropertyOp51
 70
     0
102
RTVSPropertyOp52
 70
     0
102
RTVSPropertyOp53
 70
     1
102
RTVSPropertyOp54
 70
     1
102
RTVSPropertyOp55
 70
     1
102
RTVSPropertyOp56
 70
     1
102
RTVSPropertyOp57
 70
     1
102
RTVSPost2010Prop28
280
     0
102
RTVSPost2010PropOp28
 70
     1
102
RTVSPost2010Prop29
280
     1
102
RTVSPost2010PropOp29
 70
     1
102
RTVSPost2010Prop30
280
     1
102
RTVSPost2010PropOp30
 70
     1
102
RTVSPost2010Prop31
280
     0
102
RTVSPost2010PropOp31
 70
     1
102
RTVSPost2010Prop32
280
     0
102
RTVSPost2010PropOp32
 70
     1
102
RTVSPost2010Prop33
280
     0
102
RTVSPost2010PropOp33
 70
     1
102
RTVSPost2010Prop34
280
     0
102
RTVSPost2010PropOp34
 70
     1
102
RTVSPost2010Prop35
280
     0
102
RTVSPost2010PropOp35
 70
     1
102
RTVSPost2010Prop36
280
     0
102
RTVSPost2010PropOp36
 70
     1
102
RTVSPost2010Prop37
 90
       50
102
RTVSPost2010PropOp37
 70
     1
102
RTVSPost2010Prop38
140
0.0
102
RTVSPost2010PropOp38
 70
     1
102
RTVSPost2010Prop39
140
1.0
102
RTVSPost2010PropOp39
 70
     1
102
RTVSPost2010Prop40
 90
        0
102
RTVSPost2010PropOp40
 70
     1
102
RTVSPost2010Prop41ColorIndex
 90
       18
102
RTVSPost2010Prop41ColorRGB
 90
        0
102
RTVSPost2010PropOp41
 70
     1
102
RTVSPost2010Prop42
 90
       50
102
RTVSPost2010PropOp42
 70
     1
102
RTVSPost2010Prop43
 90
        3
102
RTVSPost2010PropOp43
 70
     1
102
RTVSPost2010Prop44ColorIndex
 90
        5
102
RTVSPost2010Prop44ColorRGB
 90
      255
102
RTVSPost2010PropOp44
 70
     1
102
RTVSPost2010Prop45
280
     0
102
RTVSPost2010PropOp45
 70
     1
102
RTVSPost2010Prop46
 90
       50
102
RTVSPost2010PropOp46
 70
     1
102
RTVSPost2010Prop47
 90
       50
102
RTVSPost2010PropOp47
 70
     1
102
RTVSPost2010Prop48
 90
       50
102
RTVSPost2010PropOp48
 70
     1
102
RTVSPost2010Prop49
280
     0
102
RTVSPost2010PropOp49
 70
     1
102
RTVSPost2010Prop50
 90
       50
102
RTVSPost2010PropOp50
 70
     1
102
RTVSPost2010Prop51ColorIndex
 90
      256
102
RTVSPost2010Prop51ColorRGB
 90
-16777216
102
RTVSPost2010PropOp51
 70
     0
102
RTVSPost2010Prop52
140
1.0
102
RTVSPost2010PropOp52
 70
     0
102
RTVSPost2010Prop53
 90
        2
102
RTVSPost2010PropOp53
 70
     1
102
RTVSPost2010Prop54
  1
strokes_ogs.tif
102
RTVSPost2010PropOp54
 70
     1
102
RTVSPost2010Prop55
280
     0
102
RTVSPost2010PropOp55
 70
     1
102
RTVSPost2010Prop56
140
1.0
102
RTVSPost2010PropOp56
 70
     1
102
RTVSPost2010Prop57
140
1.0
102
RTVSPost2010PropOp57
 70
     1
  0
XRECORD
  5
1D8
102
{ACAD_REACTORS
330
1D7
102
}
330
1D7
100
AcDbXrecord
280
     1
102
RTVSPropertyOp0
 70
     1
102
RTVSPropertyOp1
 70
     1
102
RTVSPropertyOp2
 70
     1
102
RTVSPropertyOp3
 70
     1
102
RTVSPropertyOp4
 70
     1
102
RTVSPropertyOp5
 70
     1
102
RTVSPropertyOp6
 70
     1
102
RTVSPropertyOp7
 70
     1
102
RTVSPropertyOp8
 70
     1
102
RTVSPropertyOp9
 70
     1
102
RTVSPropertyOp10
 70
     1
102
RTVSPropertyOp11
 70
     1
102
RTVSPropertyOp12
 70
     1
102
RTVSPropertyOp13
 70
     1
102
RTVSPropertyOp14
 70
     1
102
RTVSPropertyOp15
 70
     1
102
RTVSPropertyOp16
 70
     1
102
RTVSPropertyOp17
 70
     1
102
RTVSPropertyOp18
 70
     1
102
RTVSPropertyOp19
 70
     1
102
RTVSPropertyOp20
 70
     1
102
RTVSPropertyOp21
 70
     1
102
RTVSPropertyOp22
 70
     1
102
RTVSPropertyOp23
 70
     1
102
RTVSPropertyOp24
 70
     1
102
RTVSPropertyOp25
 70
     1
102
RTVSPropertyOp26
 70
     1
102
RTVSPropertyOp27
 70
     1
102
RTVSPropertyOp28
 70
     1
102
RTVSPropertyOp29
 70
     1
102
RTVSPropertyOp30
 70
     1
102
RTVSPropertyOp31
 70
     1
102
RTVSPropertyOp32
 70
     1
102
RTVSPropertyOp33
 70
     1
102
RTVSPropertyOp34
 70
     1
102
RTVSPropertyOp35
 70
     1
102
RTVSPropertyOp36
 70
     1
102
RTVSPropertyOp37
 70
     1
102
RTVSPropertyOp38
 70
     1
102
RTVSPropertyOp39
 70
     1
102
RTVSPropertyOp40
 70
     1
102
RTVSPropertyOp41
 70
     1
102
RTVSPropertyOp42
 70
     1
102
RTVSPropertyOp43
 70
     1
102
RTVSPropertyOp44
 70
     1
102
RTVSPropertyOp45
 70
     1
102
RTVSPropertyOp46
 70
     1
102
RTVSPropertyOp47
 70
     1
102
RTVSPropertyOp48
 70
     1
102
RTVSPropertyOp49
 70
     1
102
RTVSPropertyOp50
 70
     1
102
RTVSPropertyOp51
 70
     0
102
RTVSPropertyOp52
 70
     0
102
RTVSPropertyOp53
 70
     1
102
RTVSPropertyOp54
 70
     1
102
RTVSPropertyOp55
 70
     1
102
RTVSPropertyOp56
 70
     1
102
RTVSPropertyOp57
 70
     1
102
RTVSPost2010Prop28
280
     0
102
RTVSPost2010PropOp28
 70
     1
102
RTVSPost2010Prop29
280
     1
102
RTVSPost2010PropOp29
 70
     1
102
RTVSPost2010Prop30
280
     1
102
RTVSPost2010PropOp30
 70
     1
102
RTVSPost2010Prop31
280
     0
102
RTVSPost2010PropOp31
 70
     1
102
RTVSPost2010Prop32
280
     0
102
RTVSPost2010PropOp32
 70
     1
102
RTVSPost2010Prop33
280
     0
102
RTVSPost2010PropOp33
 70
     1
102
RTVSPost2010Prop34
280
     0
102
RTVSPost2010PropOp34
 70
     1
102
RTVSPost2010Prop35
280
     0
102
RTVSPost2010PropOp35
 70
     1
102
RTVSPost2010Prop36
280
     0
102
RTVSPost2010PropOp36
 70
     1
102
RTVSPost2010Prop37
 90
       50
102
RTVSPost2010PropOp37
 70
     1
102
RTVSPost2010Prop38
140
0.0
102
RTVSPost2010PropOp38
 70
     1
102
RTVSPost2010Prop39
140
1.0
102
RTVSPost2010PropOp39
 70
     1
102
RTVSPost2010Prop40
 90
        0
102
RTVSPost2010PropOp40
 70
     1
102
RTVSPost2010Prop41ColorIndex
 90
       18
102
RTVSPost2010Prop41ColorRGB
 90
        0
102
RTVSPost2010PropOp41
 70
     1
102
RTVSPost2010Prop42
 90
       50
102
RTVSPost2010PropOp42
 70
     1
102
RTVSPost2010Prop43
 90
        3
102
RTVSPost2010PropOp43
 70
     1
102
RTVSPost2010Prop44ColorIndex
 90
        5
102
RTVSPost2010Prop44ColorRGB
 90
      255
102
RTVSPost2010PropOp44
 70
     1
102
RTVSPost2010Prop45
280
     0
102
RTVSPost2010PropOp45
 70
     1
102
RTVSPost2010Prop46
 90
       50
102
RTVSPost2010PropOp46
 70
     1
102
RTVSPost2010Prop47
 90
       50
102
RTVSPost2010PropOp47
 70
     1
102
RTVSPost2010Prop48
 90
       50
102
RTVSPost2010PropOp48
 70
     1
102
RTVSPost2010Prop49
280
     0
102
RTVSPost2010PropOp49
 70
     1
102
RTVSPost2010Prop50
 90
       50
102
RTVSPost2010PropOp50
 70
     1
102
RTVSPost2010Prop51ColorIndex
 90
      256
102
RTVSPost2010Prop51ColorRGB
 90
-16777216
102
RTVSPost2010PropOp51
 70
     0
102
RTVSPost2010Prop52
140
1.0
102
RTVSPost2010PropOp52
 70
     0
102
RTVSPost2010Prop53
 90
        2
102
RTVSPost2010PropOp53
 70
     1
102
RTVSPost2010Prop54
  1
strokes_ogs.tif
102
RTVSPost2010PropOp54
 70
     1
102
RTVSPost2010Prop55
280
     0
102
RTVSPost2010PropOp55
 70
     1
102
RTVSPost2010Prop56
140
1.0
102
RTVSPost2010PropOp56
 70
     1
102
RTVSPost2010Prop57
140
1.0
102
RTVSPost2010PropOp57
 70
     1
  0
XRECORD
  5
1C8
102
{ACAD_REACTORS
330
1C7
102
}
330
1C7
100
AcDbXrecord
280
     1
102
RTVSPropertyOp0
 70
     1
102
RTVSPropertyOp1
 70
     1
102
RTVSPropertyOp2
 70
     1
102
RTVSPropertyOp3
 70
     1
102
RTVSPropertyOp4
 70
     1
102
RTVSPropertyOp5
 70
     1
102
RTVSPropertyOp6
 70
     1
102
RTVSPropertyOp7
 70
     1
102
RTVSPropertyOp8
 70
     1
102
RTVSPropertyOp9
 70
     1
102
RTVSPropertyOp10
 70
     1
102
RTVSPropertyOp11
 70
     1
102
RTVSPropertyOp12
 70
     1
102
RTVSPropertyOp13
 70
     1
102
RTVSPropertyOp14
 70
     1
102
RTVSPropertyOp15
 70
     1
102
RTVSPropertyOp16
 70
     1
102
RTVSPropertyOp17
 70
     1
102
RTVSPropertyOp18
 70
     1
102
RTVSPropertyOp19
 70
     1
102
RTVSPropertyOp20
 70
     1
102
RTVSPropertyOp21
 70
     1
102
RTVSPropertyOp22
 70
     1
102
RTVSPropertyOp23
 70
     1
102
RTVSPropertyOp24
 70
     1
102
RTVSPropertyOp25
 70
     1
102
RTVSPropertyOp26
 70
     1
102
RTVSPropertyOp27
 70
     1
102
RTVSPropertyOp28
 70
     1
102
RTVSPropertyOp29
 70
     1
102
RTVSPropertyOp30
 70
     1
102
RTVSPropertyOp31
 70
     1
102
RTVSPropertyOp32
 70
     1
102
RTVSPropertyOp33
 70
     1
102
RTVSPropertyOp34
 70
     1
102
RTVSPropertyOp35
 70
     1
102
RTVSPropertyOp36
 70
     1
102
RTVSPropertyOp37
 70
     1
102
RTVSPropertyOp38
 70
     1
102
RTVSPropertyOp39
 70
     1
102
RTVSPropertyOp40
 70
     1
102
RTVSPropertyOp41
 70
     1
102
RTVSPropertyOp42
 70
     1
102
RTVSPropertyOp43
 70
     1
102
RTVSPropertyOp44
 70
     1
102
RTVSPropertyOp45
 70
     1
102
RTVSPropertyOp46
 70
     1
102
RTVSPropertyOp47
 70
     1
102
RTVSPropertyOp48
 70
     1
102
RTVSPropertyOp49
 70
     1
102
RTVSPropertyOp50
 70
     1
102
RTVSPropertyOp51
 70
     0
102
RTVSPropertyOp52
 70
     0
102
RTVSPropertyOp53
 70
     1
102
RTVSPropertyOp54
 70
     1
102
RTVSPropertyOp55
 70
     1
102
RTVSPropertyOp56
 70
     1
102
RTVSPropertyOp57
 70
     1
102
RTVSPost2010Prop28
280
     0
102
RTVSPost2010PropOp28
 70
     1
102
RTVSPost2010Prop29
280
     1
102
RTVSPost2010PropOp29
 70
     1
102
RTVSPost2010Prop30
280
     1
102
RTVSPost2010PropOp30
 70
     1
102
RTVSPost2010Prop31
280
     0
102
RTVSPost2010PropOp31
 70
     1
102
RTVSPost2010Prop32
280
     0
102
RTVSPost2010PropOp32
 70
     1
102
RTVSPost2010Prop33
280
     0
102
RTVSPost2010PropOp33
 70
     1
102
RTVSPost2010Prop34
280
     0
102
RTVSPost2010PropOp34
 70
     1
102
RTVSPost2010Prop35
280
     0
102
RTVSPost2010PropOp35
 70
     1
102
RTVSPost2010Prop36
280
     0
102
RTVSPost2010PropOp36
 70
     1
102
RTVSPost2010Prop37
 90
       50
102
RTVSPost2010PropOp37
 70
     1
102
RTVSPost2010Prop38
140
0.0
102
RTVSPost2010PropOp38
 70
     1
102
RTVSPost2010Prop39
140
1.0
102
RTVSPost2010PropOp39
 70
     1
102
RTVSPost2010Prop40
 90
        0
102
RTVSPost2010PropOp40
 70
     1
102
RTVSPost2010Prop41ColorIndex
 90
       18
102
RTVSPost2010Prop41ColorRGB
 90
        0
102
RTVSPost2010PropOp41
 70
     1
102
RTVSPost2010Prop42
 90
       50
102
RTVSPost2010PropOp42
 70
     1
102
RTVSPost2010Prop43
 90
        3
102
RTVSPost2010PropOp43
 70
     1
102
RTVSPost2010Prop44ColorIndex
 90
        5
102
RTVSPost2010Prop44ColorRGB
 90
      255
102
RTVSPost2010PropOp44
 70
     1
102
RTVSPost2010Prop45
280
     0
102
RTVSPost2010PropOp45
 70
     1
102
RTVSPost2010Prop46
 90
       50
102
RTVSPost2010PropOp46
 70
     1
102
RTVSPost2010Prop47
 90
       50
102
RTVSPost2010PropOp47
 70
     1
102
RTVSPost2010Prop48
 90
       50
102
RTVSPost2010PropOp48
 70
     1
102
RTVSPost2010Prop49
280
     0
102
RTVSPost2010PropOp49
 70
     1
102
RTVSPost2010Prop50
 90
       50
102
RTVSPost2010PropOp50
 70
     1
102
RTVSPost2010Prop51ColorIndex
 90
      256
102
RTVSPost2010Prop51ColorRGB
 90
-16777216
102
RTVSPost2010PropOp51
 70
     0
102
RTVSPost2010Prop52
140
1.0
102
RTVSPost2010PropOp52
 70
     0
102
RTVSPost2010Prop53
 90
        2
102
RTVSPost2010PropOp53
 70
     1
102
RTVSPost2010Prop54
  1
strokes_ogs.tif
102
RTVSPost2010PropOp54
 70
     1
102
RTVSPost2010Prop55
280
     0
102
RTVSPost2010PropOp55
 70
     1
102
RTVSPost2010Prop56
140
1.0
102
RTVSPost2010PropOp56
 70
     1
102
RTVSPost2010Prop57
140
1.0
102
RTVSPost2010PropOp57
 70
     1
  0
XRECORD
  5
1BA
102
{ACAD_REACTORS
330
1B9
102
}
330
1B9
100
AcDbXrecord
280
     1
102
RTVSPropertyOp0
 70
     1
102
RTVSPropertyOp1
 70
     1
102
RTVSPropertyOp2
 70
     1
102
RTVSPropertyOp3
 70
     1
102
RTVSPropertyOp4
 70
     1
102
RTVSPropertyOp5
 70
     1
102
RTVSPropertyOp6
 70
     1
102
RTVSPropertyOp7
 70
     1
102
RTVSPropertyOp8
 70
     1
102
RTVSPropertyOp9
 70
     1
102
RTVSPropertyOp10
 70
     1
102
RTVSPropertyOp11
 70
     1
102
RTVSPropertyOp12
 70
     1
102
RTVSPropertyOp13
 70
     1
102
RTVSPropertyOp14
 70
     1
102
RTVSPropertyOp15
 70
     1
102
RTVSPropertyOp16
 70
     1
102
RTVSPropertyOp17
 70
     1
102
RTVSPropertyOp18
 70
     1
102
RTVSPropertyOp19
 70
     1
102
RTVSPropertyOp20
 70
     1
102
RTVSPropertyOp21
 70
     1
102
RTVSPropertyOp22
 70
     1
102
RTVSPropertyOp23
 70
     1
102
RTVSPropertyOp24
 70
     1
102
RTVSPropertyOp25
 70
     1
102
RTVSPropertyOp26
 70
     1
102
RTVSPropertyOp27
 70
     1
102
RTVSPropertyOp28
 70
     1
102
RTVSPropertyOp29
 70
     1
102
RTVSPropertyOp30
 70
     1
102
RTVSPropertyOp31
 70
     1
102
RTVSPropertyOp32
 70
     1
102
RTVSPropertyOp33
 70
     1
102
RTVSPropertyOp34
 70
     1
102
RTVSPropertyOp35
 70
     1
102
RTVSPropertyOp36
 70
     1
102
RTVSPropertyOp37
 70
     1
102
RTVSPropertyOp38
 70
     1
102
RTVSPropertyOp39
 70
     1
102
RTVSPropertyOp40
 70
     1
102
RTVSPropertyOp41
 70
     1
102
RTVSPropertyOp42
 70
     1
102
RTVSPropertyOp43
 70
     1
102
RTVSPropertyOp44
 70
     1
102
RTVSPropertyOp45
 70
     1
102
RTVSPropertyOp46
 70
     1
102
RTVSPropertyOp47
 70
     1
102
RTVSPropertyOp48
 70
     1
102
RTVSPropertyOp49
 70
     1
102
RTVSPropertyOp50
 70
     1
102
RTVSPropertyOp51
 70
     0
102
RTVSPropertyOp52
 70
     0
102
RTVSPropertyOp53
 70
     1
102
RTVSPropertyOp54
 70
     1
102
RTVSPropertyOp55
 70
     1
102
RTVSPropertyOp56
 70
     1
102
RTVSPropertyOp57
 70
     1
102
RTVSPost2010Prop28
280
     0
102
RTVSPost2010PropOp28
 70
     1
102
RTVSPost2010Prop29
280
     1
102
RTVSPost2010PropOp29
 70
     1
102
RTVSPost2010Prop30
280
     1
102
RTVSPost2010PropOp30
 70
     1
102
RTVSPost2010Prop31
280
     0
102
RTVSPost2010PropOp31
 70
     1
102
RTVSPost2010Prop32
280
     0
102
RTVSPost2010PropOp32
 70
     1
102
RTVSPost2010Prop33
280
     0
102
RTVSPost2010PropOp33
 70
     1
102
RTVSPost2010Prop34
280
     0
102
RTVSPost2010PropOp34
 70
     1
102
RTVSPost2010Prop35
280
     0
102
RTVSPost2010PropOp35
 70
     1
102
RTVSPost2010Prop36
280
     0
102
RTVSPost2010PropOp36
 70
     1
102
RTVSPost2010Prop37
 90
       50
102
RTVSPost2010PropOp37
 70
     1
102
RTVSPost2010Prop38
140
0.0
102
RTVSPost2010PropOp38
 70
     1
102
RTVSPost2010Prop39
140
1.0
102
RTVSPost2010PropOp39
 70
     1
102
RTVSPost2010Prop40
 90
        0
102
RTVSPost2010PropOp40
 70
     1
102
RTVSPost2010Prop41ColorIndex
 90
       18
102
RTVSPost2010Prop41ColorRGB
 90
        0
102
RTVSPost2010PropOp41
 70
     1
102
RTVSPost2010Prop42
 90
       50
102
RTVSPost2010PropOp42
 70
     1
102
RTVSPost2010Prop43
 90
        3
102
RTVSPost2010PropOp43
 70
     1
102
RTVSPost2010Prop44ColorIndex
 90
        5
102
RTVSPost2010Prop44ColorRGB
 90
      255
102
RTVSPost2010PropOp44
 70
     1
102
RTVSPost2010Prop45
280
     0
102
RTVSPost2010PropOp45
 70
     1
102
RTVSPost2010Prop46
 90
       50
102
RTVSPost2010PropOp46
 70
     1
102
RTVSPost2010Prop47
 90
       50
102
RTVSPost2010PropOp47
 70
     1
102
RTVSPost2010Prop48
 90
       50
102
RTVSPost2010PropOp48
 70
     1
102
RTVSPost2010Prop49
280
     0
102
RTVSPost2010PropOp49
 70
     1
102
RTVSPost2010Prop50
 90
       50
102
RTVSPost2010PropOp50
 70
     1
102
RTVSPost2010Prop51ColorIndex
 90
      256
102
RTVSPost2010Prop51ColorRGB
 90
-16777216
102
RTVSPost2010PropOp51
 70
     0
102
RTVSPost2010Prop52
140
1.0
102
RTVSPost2010PropOp52
 70
     0
102
RTVSPost2010Prop53
 90
        2
102
RTVSPost2010PropOp53
 70
     1
102
RTVSPost2010Prop54
  1
strokes_ogs.tif
102
RTVSPost2010PropOp54
 70
     1
102
RTVSPost2010Prop55
280
     0
102
RTVSPost2010PropOp55
 70
     1
102
RTVSPost2010Prop56
140
1.0
102
RTVSPost2010PropOp56
 70
     1
102
RTVSPost2010Prop57
140
1.0
102
RTVSPost2010PropOp57
 70
     1
  0
XRECORD
  5
1DA
102
{ACAD_REACTORS
330
1D9
102
}
330
1D9
100
AcDbXrecord
280
     1
102
RTVSPropertyOp0
 70
     1
102
RTVSPropertyOp1
 70
     1
102
RTVSPropertyOp2
 70
     1
102
RTVSPropertyOp3
 70
     1
102
RTVSPropertyOp4
 70
     1
102
RTVSPropertyOp5
 70
     1
102
RTVSPropertyOp6
 70
     1
102
RTVSPropertyOp7
 70
     1
102
RTVSPropertyOp8
 70
     1
102
RTVSPropertyOp9
 70
     1
102
RTVSPropertyOp10
 70
     1
102
RTVSPropertyOp11
 70
     1
102
RTVSPropertyOp12
 70
     1
102
RTVSPropertyOp13
 70
     1
102
RTVSPropertyOp14
 70
     1
102
RTVSPropertyOp15
 70
     1
102
RTVSPropertyOp16
 70
     1
102
RTVSPropertyOp17
 70
     1
102
RTVSPropertyOp18
 70
     1
102
RTVSPropertyOp19
 70
     1
102
RTVSPropertyOp20
 70
     1
102
RTVSPropertyOp21
 70
     1
102
RTVSPropertyOp22
 70
     1
102
RTVSPropertyOp23
 70
     1
102
RTVSPropertyOp24
 70
     1
102
RTVSPropertyOp25
 70
     1
102
RTVSPropertyOp26
 70
     1
102
RTVSPropertyOp27
 70
     1
102
RTVSPropertyOp28
 70
     1
102
RTVSPropertyOp29
 70
     1
102
RTVSPropertyOp30
 70
     1
102
RTVSPropertyOp31
 70
     1
102
RTVSPropertyOp32
 70
     1
102
RTVSPropertyOp33
 70
     1
102
RTVSPropertyOp34
 70
     1
102
RTVSPropertyOp35
 70
     1
102
RTVSPropertyOp36
 70
     1
102
RTVSPropertyOp37
 70
     1
102
RTVSPropertyOp38
 70
     1
102
RTVSPropertyOp39
 70
     1
102
RTVSPropertyOp40
 70
     1
102
RTVSPropertyOp41
 70
     1
102
RTVSPropertyOp42
 70
     1
102
RTVSPropertyOp43
 70
     1
102
RTVSPropertyOp44
 70
     1
102
RTVSPropertyOp45
 70
     1
102
RTVSPropertyOp46
 70
     1
102
RTVSPropertyOp47
 70
     1
102
RTVSPropertyOp48
 70
     1
102
RTVSPropertyOp49
 70
     1
102
RTVSPropertyOp50
 70
     1
102
RTVSPropertyOp51
 70
     0
102
RTVSPropertyOp52
 70
     0
102
RTVSPropertyOp53
 70
     1
102
RTVSPropertyOp54
 70
     1
102
RTVSPropertyOp55
 70
     1
102
RTVSPropertyOp56
 70
     1
102
RTVSPropertyOp57
 70
     1
102
RTVSPost2010Prop28
280
     0
102
RTVSPost2010PropOp28
 70
     1
102
RTVSPost2010Prop29
280
     1
102
RTVSPost2010PropOp29
 70
     1
102
RTVSPost2010Prop30
280
     1
102
RTVSPost2010PropOp30
 70
     1
102
RTVSPost2010Prop31
280
     0
102
RTVSPost2010PropOp31
 70
     1
102
RTVSPost2010Prop32
280
     0
102
RTVSPost2010PropOp32
 70
     1
102
RTVSPost2010Prop33
280
     0
102
RTVSPost2010PropOp33
 70
     1
102
RTVSPost2010Prop34
280
     0
102
RTVSPost2010PropOp34
 70
     1
102
RTVSPost2010Prop35
280
     0
102
RTVSPost2010PropOp35
 70
     1
102
RTVSPost2010Prop36
280
     0
102
RTVSPost2010PropOp36
 70
     1
102
RTVSPost2010Prop37
 90
       50
102
RTVSPost2010PropOp37
 70
     1
102
RTVSPost2010Prop38
140
0.0
102
RTVSPost2010PropOp38
 70
     1
102
RTVSPost2010Prop39
140
1.0
102
RTVSPost2010PropOp39
 70
     1
102
RTVSPost2010Prop40
 90
        0
102
RTVSPost2010PropOp40
 70
     1
102
RTVSPost2010Prop41ColorIndex
 90
       18
102
RTVSPost2010Prop41ColorRGB
 90
        0
102
RTVSPost2010PropOp41
 70
     1
102
RTVSPost2010Prop42
 90
       50
102
RTVSPost2010PropOp42
 70
     1
102
RTVSPost2010Prop43
 90
        3
102
RTVSPost2010PropOp43
 70
     1
102
RTVSPost2010Prop44ColorIndex
 90
        5
102
RTVSPost2010Prop44ColorRGB
 90
      255
102
RTVSPost2010PropOp44
 70
     1
102
RTVSPost2010Prop45
280
     0
102
RTVSPost2010PropOp45
 70
     1
102
RTVSPost2010Prop46
 90
       50
102
RTVSPost2010PropOp46
 70
     1
102
RTVSPost2010Prop47
 90
       50
102
RTVSPost2010PropOp47
 70
     1
102
RTVSPost2010Prop48
 90
       50
102
RTVSPost2010PropOp48
 70
     1
102
RTVSPost2010Prop49
280
     0
102
RTVSPost2010PropOp49
 70
     1
102
RTVSPost2010Prop50
 90
       50
102
RTVSPost2010PropOp50
 70
     1
102
RTVSPost2010Prop51ColorIndex
 90
      256
102
RTVSPost2010Prop51ColorRGB
 90
-16777216
102
RTVSPost2010PropOp51
 70
     0
102
RTVSPost2010Prop52
140
1.0
102
RTVSPost2010PropOp52
 70
     0
102
RTVSPost2010Prop53
 90
        2
102
RTVSPost2010PropOp53
 70
     1
102
RTVSPost2010Prop54
  1
strokes_ogs.tif
102
RTVSPost2010PropOp54
 70
     1
102
RTVSPost2010Prop55
280
     0
102
RTVSPost2010PropOp55
 70
     1
102
RTVSPost2010Prop56
140
1.0
102
RTVSPost2010PropOp56
 70
     1
102
RTVSPost2010Prop57
140
1.0
102
RTVSPost2010PropOp57
 70
     1
  0
ENDSEC
  0
EOF
